busca

Breve Verei o Bom Jesus

Harpa Cristã

Tom: Em
E|-------------------------3----3-----------12-10-8--|
B|---------------------3-5-5----5------5----8--------|
G|------------------5--5-5-5----5------5-------10-9--|
D|------------------2--3-5-------------5----10-10-10-|
A|------------------3--3-3-3----3------3-------------|
E|------------------------------------------8--8--8--|

E|------------------0-----------------------5--3-1-|
B|-8----8------5----8--6-5-6----6------0----6--5-3-|
G|-9----9------5----0--7-5-7----7------7----0--0-0-|
D|-10---10-----5-------5-5-5----5------5-----------|
A|---------------------------------------------0-2-|
E|-8----8------8----8--8-8-3----3------3----3------|

E|-0----1--------------------12---12-----0----0--------|
B|-1----0------8----8--7--8--8----8------13---13-12-13-|
G|-0----0------0----9--8--9--------------0----0--10-12-|
D|------0------10---10-10-10-10---10----------------10-|
A|-3-----------7---------------------------------10----|
E|------------------8--8--8--8----8------8----8--10-12-|

E|---------------------------0----0-----------10-0-----|
B|-10---10-----13---13-12-10-8----8------12------13-12-|
G|-10---10-----14---14-12-10-0----0------10---10-0--0--|
D|-10---10-----10---10-10-10-10---10-----12---------12-|
A|---------------------------------------10---10-------|
E|-13---13-----13---13-13-13---------------------------|

E|-0----------------0-----0--10-------------------8--7-5-|
B|-13---------------13-12-13-0--0--0--0---0--0----10-8-6-|
G|-0-------------------------10--------------------------|
D|---------------------12--------------------------------|
A|---------------------------10-10-10-10--10-10----------|
E|-8-----------------------------------------------------|

E|-3----------------3----0--------------------------0---|
B|-5----------------5--6----0--0--0--0---0--0----10-8-6-|
G|-5-5-5-5--5--5-------7----10-------------------10---7-|
D|-----------------------10-12--------------------------|
A|-3-3-3-3--3--3------------10-10-10-10--10-10----------|
E|------------------------------------------------------|

E|------------------0------12---------------------12-10-0--|
B|-5----------------8--7-8-8----------------------8-----13-|
G|-5-------------------8-9---------------------------10----|
D|-5-5-5-5--5--5-----------10-10-10-10-10-10-10------------|
A|---------------------------------------------------------|
E|-8-8-8-8--8--8-----------8--8--8--8--8--8--8-------------|

E|------------------------------5-3-----3-----3---------7-|
B|-10---------------------13-12-6-5-----3-----5---------3-|
G|-10---------------------14-12---5-5-5-4--4--5-----------|
D|-10-10-10-10-10-10-10-----------5-5-5-5--5--5---------5-|
A|--------------------------------------------------------|
E|-13-13-13-13-13-13-13----------------------------3--3-3-|


E|-8--------------------------------------------|
B|-5----6--6-6-5--------------------------------|
G|----------------------------------------------|
D|-5----7--7-7-5--------------------------------|
A|----------------------------------------------|
E|-8----8--8-8-8--------------------------------|

Clipes

Cifra Club Pro

Aproveite o Cifra Club com benefícios exclusivos e sem anúncios
7 dias grátis
Cifra Club Pro
Aproveite o Cifra Club com benefícios exclusivos e sem anúncios
7 dias grátis