busca

Cristo, Em Breve, Vem!

Harpa Cristã

Tom: G
E|-----------------|-7---7-----------|-5---5--------|-2-2-2-2-2----0-|
B|-----------------|-8---8---8----8--|-5---5---5----|-3-3-3-3-1----1-|
G|--------------7--|-7---7---7----7--|-5---5---5----|-5-5-5-5-2----2-|
D|--------------9--|---------9----9--|--------------|-0-0-0-0-0----2-|
A|--------------10-|-10--10--10---10-|--------------|----------------|
E|-----------------|-----------------|-8---8---8----|----------------|

E|-0--------------|-7---7---3----3-|-5---5--------|-------5-7---5-|
B|-1-3-3-5-3----3-|-3---3---3----3-|-5---5---5----|-3---7-7-----7-|
G|-2-2-5-5-5----4-|---------4----4-|-5---5---5----|-5---5---7---5-|
D|-4-4-7-4-4----5-|-5---5---5----5-|---------5----|-4---7-7-5-----|
A|-----5-5-5------|----------------|-3---3---3----|-5---5-5-5---5-|
E|----------------|----------------|--------------|---------------|

E|-----------------|-7--7--7--7--7-------|-5--------------|-2-2-2-2-2----0-|
B|-8---------------|-8--8--8--8--8----8--|-5-5-5-5-5----5-|-3-3-3-3-3----1-|
G|--------------7--|-7--7--7--7--7----7--|-5-5-5-5-5----5-|-5-5-5-5-2----2-|
D|-9------------9--|------------------9--|----------------|-0-0-0-0-0----2-|
A|-10-----------10-|-10-10-10-10-10---10-|----------------|----------------|
E|-----------------|---------------------|-8-8-8-8-8----8-|----------------|

E|-0------0----------|-7--7--7--7----------|-8-8-8-8------|-----3-5-7---5-|
B|-1-3-0--0--0----0--|-------8--8--8----8--|-5-5-5-5-5----|-0---0-7-7---7-|
G|-2-2-0--0--0-------|-7--7--7--7--7----7--|-5-5-5-5-5----|-7---7-7-7---5-|
D|-4-4-12-12-12---12-|----9--------9----9--|---------5----|-5---5-0-0---0-|
A|----------------10-|-10-10-10-10-10---10-|--------------|---------------|
E|-------------------|---------------------|-8-8-8-8-8----|---------------|

E|--------------|
B|-8------------|
G|-0------------|
D|-9------------|
A|--------------|
E|--------------|

Clipes

Cifra Club Pro

Aproveite o Cifra Club com benefícios exclusivos e sem anúncios
7 dias grátis
Cifra Club Pro
Aproveite o Cifra Club com benefícios exclusivos e sem anúncios
7 dias grátis