busca

Despertar Para o Trabalho

Harpa Cristã

Tom: Bm
E|-5---5-5-0----10--7--5----|-0---0-0---0-5---0----|-5---5-5-0----10--7--5----|
B|-7---7-7-8-7--7---8--7--7-|-8---8-8-7---7---8-7--|-7---7-7-8-7--7---0--7--7-|
G|-7---7-7---7------6--7--7-|---------7-6-------7--|-7---7-7---7------12-7--7-|
D|-0---0-0---7--7---------7-|-7---7-7---7-7---7-7--|-0---0-0---7--7---0--0--7-|
A|---------------------5--5-|-------------0---4-5--|------------------------5-|
E|-----------10-10--10------|---------------7------|-----------10-10----------|

E|-7---7-5--10-----0-----|--------------7-5---7-5-----|
B|-3---3-7--7--7---------|-15--15-15-14-8-7---8-7--7--|
G|-------7-----7---0--7--|-11--11-11-14-7-7---7-7--7--|
D|----------7--7---11-0--|-0---0--0-----0-0---0----7--|
A|-------0--0--0---0--9--|-12--12-12------------5-----|
E|-3---3-----------------|-------------------------10-|

E|-10--10-10-9-7--9---7-5----|-5---5-5-0----10--7--5-----|
B|-0---0--0----0--10--9----8-|-7---7-7-8-7--7---8--7--7--|
G|-11--11-11---11-----7-6----|-7---7-7---7------6--7--7--|
D|-----------8-0--7----------|-0---0-0---7--7---------7--|
A|----------------7---7-0----|---------------------5-----|
E|-7---7--7--9---------------|-----------10-10--10----10-|

E|-7---7------10-----0------|----------------------|
B|--------10--7--7----------|----------------------|
G|-7---7--7------7---0------|----------------------|
D|--------7---7--7---11-12--|----------------------|
A|-10--10-9------0---0--9---|----------------------|
E|------------10--------10--|----------------------|

Clipes

Cifra Club Pro

Aproveite o Cifra Club com benefícios exclusivos e sem anúncios
7 dias grátis
Cifra Club Pro
Aproveite o Cifra Club com benefícios exclusivos e sem anúncios
7 dias grátis