busca

Fala do Amor de Cristo

Harpa Cristã

Tom: G
E|---------------|-3------------|-7---7--7--------|--------------|---------------|
B|-0-------5---7-|---------3----|-3---------10--8-|-7------------|-------5-7---8-|
G|-7---7-7-5---5-|-4-------4----|-----7--7--7---7-|-5------------|-7---7-7-7---7-|
D|-5---5-5-5---0-|---------5----|-5---------0---5-|-7------------|-4---4-5-7---5-|
A|-------------0-|-5------------|-----10-10-9-----|-5------------|-5---5-5-5---5-|
E|-3---7-7-8-----|-3-------3----|-3-------------7-|--------------|---------------|

E|---------8----|-----0---5---6-|-7------------|---------------|-3-------7----|
B|-10-----------|-7---3-3-------|-3------------|-3---3-3-5---7-|---------3----|
G|-7-------7----|-7---0---5---5-|--------------|-4---4-4-5---5-|-4------------|
D|-0-------7----|-7---0-4-4---4-|-5------------|-5---5-5-------|---------5----|
A|-9------------|-------5-5---5-|--------------|---------7---6-|-5------------|
E|---------10---|-10------------|-3------------|-3---3-3-3---3-|-3-------3----|

E|-10--10-10-8---7-|--------------|-5---5-5-------|-------------0--|
B|-----6--6--5-----|-5------------|-5-------8---5-|-0-------8---13-|
G|-7---0--0--0---7-|-5------------|-----5-5-5---5-|-7-------0---0--|
D|---------------6-|-7------------|-7-----------5-|---------9------|
A|-10------------7-|--------------|-----7-7-7-----|-10------7------|
E|-7---7--7--8-----|--------------|-8---8-8-8---8-|-------------8--|

E|---------------|-3------------|-7---7-5-3---7-|-10------7----|-7---7-7-5---3-|
B|-12------10----|-0------------|-3---3---3---3-|---------3----|-3---3-3-3---3-|
G|-0-------0-----|-0------------|-0---0-7-------|-7------------|-------------0-|
D|-12------10----|--------------|-------4-5---5-|---------5----|-5---5-5-4-----|
A|-------------9-|--------------|-----5-5-------|-10-----------|---------0-----|
E|-10------10----|-3------------|---------7---3-|-7-------3----|-3---3-3-----7-|

E|-8------------|-----5--------5-|-8------------|-----------5---6-|-7------------|
B|--------------|-10-----8-7---7-|---------10---|-15--15-13-------|-3------------|
G|-7------------|-7---7--7-7-----|-7-------7----|-11--11-11-5---5-|--------------|
D|---------7----|-0---10-9-7---7-|-0-------7----|-0---0--0--4---4-|-5------------|
A|-9---10--9----|-9---5--5-5---5-|-9-------9----|-12--12-12-5---5-|--------------|
E|-10--12-------|----------------|--------------|-----------------|-3------------|

E|-7---7-5-3---7-|-10------7----|-3---3-5-7---3-|--------------|-5---5-5-0---0-|
B|-3---3-3-3---3-|---------3----|-3---0-3-3---3-|-5------------|-5---5-5-8-----|
G|---------0-----|-7------------|-0---0---------|-5------------|-------------0-|
D|-5---5-4-----5-|---------5----|-----2-4-5---5-|-5------------|-7---7-7-7---7-|
A|-------0-------|-10-----------|-2-----5-------|--------------|---------------|
E|-3---3---7---3-|-7-------3----|---------3---7-|-8------------|-8---8-8-9---9-|

E|-------------8--|-7-------------|-3------------|
B|-0-------0------|---------10----|-0------------|
G|-7-------12-----|-7-------0-----|-0------------|
D|-0-------0---10-|-0-------10----|--------------|
A|-10------10--10-|-10----------9-|--------------|
E|-------------12-|---------10----|-3------------|

Clipes

Cifra Club Pro

Aproveite o Cifra Club com benefícios exclusivos e sem anúncios
7 dias grátis
Cifra Club Pro
Aproveite o Cifra Club com benefícios exclusivos e sem anúncios
7 dias grátis