busca

Fala, Fala, Senhor

Harpa Cristã

Tom: G
E|-------------------|-7---7--7--10--8-7-|-7-5-------------|-5---5-8-8---5-8--|
B|----------------8--|-8---8--8--8---7-8-|-8-7-----------7-|-7---7-7-7---7-10-|
G|-------------7--7--|-7---7--7--7---7-7-|-7-7---------7-7-|-7---5-4-----7-7--|
D|-------------9--9--|-----------9---7-5-|-------------4-7-|---------7--------|
A|-------------10-10-|-10--10-10---------|-5-5---------5-5-|-5---5-5-5---5-5--|
E|-------------------|-------------------|-----------------|------------------|

E|-7---------------|---------0---0-2-|-0-------------2-|-5---5--------------|
B|-8-----------8-7-|-5---5-7-8---1-3-|-1-3---------3-3-|-7---7-12-13--10----|
G|-7-----------7-7-|-5---5-7-5---0-0-|-0-4-----------2-|-7---5-12-11--7--7--|
D|-5-----------5-5-|-5---5-5---------|---5---------4-0-|-0---0-0--0---0--10-|
A|-----------------|-------------3-3-|-------------5---|-------14-12--9--12-|
E|-------------7-7-|-8---8-8-8-------|-3-3-------------|-----------------10-|

E|-3-----------10-10-|-10--------10--------|-------------------------|
B|-0-----------0--0--|-----13-10-12--13-12-|-12-10-------------10-12-|
G|-0-----------12-12-|-11--11-11-----14-12-|-12-11-------------11-12-|
D|-------------------|-0---0--12-12--12-12-|-12-12-------------12-12-|
A|-------------10-10-|-12--12--------------|-------12-12-14-12-------|
E|-3-----------------|--------10-10--10-10-|-10-10-10-10-10-10-10-10-|

E|-----------12--10-9--|-10----------3-2-|-0---0-2-3---0-2-|-0-------------2-|
B|-13--13-13-8---8--10-|-8-----------3-3-|-1---1-3-5---1-3-|-1-3---------3-3-|
G|-11--11-11-0---0--0--|-0-----------0-0-|-0---0-0-5---0-0-|-0-4-----------2-|
D|-0---0--0--9---9--8--|-9---------------|-----------------|---5---------4-0-|
A|-12--12-12-----------|-------------2-2-|-3---3-3-3---3-3-|-------------5---|
E|---------------------|-----------------|-----------------|-3-3-------------|

E|-5---5--------------|-3------------|
B|-7---7-12-13--10----|-0------------|
G|-7---5-12-11--7--7--|-0------------|
D|-0---0-0--0---0--10-|--------------|
A|-------14-12--9--12-|--------------|
E|-----------------10-|-3------------|

Clipes

Cifra Club Pro

Aproveite o Cifra Club com benefícios exclusivos e sem anúncios
7 dias grátis
Cifra Club Pro
Aproveite o Cifra Club com benefícios exclusivos e sem anúncios
7 dias grátis