busca

Foi Na Cruz

Harpa Cristã

Riffs:

E| | --0--3-------------------------3---5----------------------------------------
A| | --------2-2-0-2-2-3-2-0--------------0-2-3-------3-2-2-0-2-3-3-2-0---------- 
D| | --------------------------------------------------0--------------------------
G| | -----------------------------------------------------------------------------

E| | ------------3-3----------------3-------------------------------------------
A| | --0-3-2-0--------3-2-5-0---------------------------------------------------
D| | ----------------------------------------------------------------------------
G| | ----------------------------------------------------------------------------

Ai começa tudo de novo

Clipes