busca

Glória ao Salvador

Harpa Cristã

Tom: Ab
E|-4----4--4-8-6-4-|-----3---6----|-6----6--6-9--8-----|-----8---11---|
B|-4----4--4-4-4-4-|-4---4---4----|-4----4--4-------11-|-9---9---9----|
G|-5----5--5---6-5-|-3---3---0----|-0----0--0-8--8--8--|-8---8--------|
D|-6----6--6---5-6-|-5------------|-----------8-----11-|-10------10---|
A|-----------6-----|-----6---6----|-6----6--6----11-10-|-11--11--11---|
E|-----------------|--------------|-----------11-13----|--------------|

E|-11--11-11-11---|-9---9--9--13---|-11---11-11-8--9-----|--------------|
B|-9---9--9--9----|-9---9--9--9----|-9----9--9--9--8--11-|--------------|
G|----------------|----------------|------------------12-|-13-----------|
D|-10--10-10-10---|-11--11-11-11---|-10---10-10----8--11-|-10-----------|
A|-11--11-11-11---|----------------|------------11-------|-11-----------|
E|----------------|-13--13-13-9----|-11---11-11-11-11-11-|--------------|

Clipes

Cifra Club Pro

Aproveite o Cifra Club com benefícios exclusivos e sem anúncios
7 dias grátis
Cifra Club Pro
Aproveite o Cifra Club com benefícios exclusivos e sem anúncios
7 dias grátis