busca

Gozo Em Jesus

Harpa Cristã

Tom: A
[3ª Voz] Gozo Em Jesus
Nº: 14 DA HARPA CRISTÃ
TOM: Ab
COMPASSO: 4/4
1   |   |   |   |   |   |   |   |  |   |   |   |     |   |   |   |  |   |   |   |
E|---------------|--------------|-----------------|--------------|---------------|
B|---------------|--------------|-----------------|--------------|---------------|
G|---------------|--------------|-----------------|--------------|---------------|
D|---------------|--------------|-----------------|--------------|---------------|
A|---------------|--------------|-----------------|--------------|---------------|
E|-4-4-----4---4-|-4---4---4----|-4---3---3---3-3-|-4---4---4----|-4-4-----4---4-|



6   |   |   |   |  |   |   |   |   |   |   |   |  |   |   |   |   |   |   |   |
E|--------------|---------------|--------------|---------------|--------------|
B|--------------|---------------|--------------|---------------|--------------|
G|--------------|---------------|--------------|---------------|--------------|
D|--------------|---------------|--------------|-------3-1-----|--------------|
A|--------------|---------------|--------------|---3-3-------3-|-1---1---1----|
E|-4---4---4----|-4---3---3---3-|-4------------|-4-------------|--------------|



11  |   |   |   |     |   |   |   |  |   |   |   |     |   |   |   |
E|-----------------|--------------|-----------------|---------------|
B|-----------------|--------------|-----------------|---------------|
G|-----------------|--------------|-----------------|---------------|
D|-----------------|--------------|---------------0-|-1---1---1-----|
A|-1-1-1---------1-|--------------|-----------1-1---|-------------1-|
E|-------4-3---4---|-4-4-4-4-4----|-4---4---1-------|---------------|



15  |   |   |   |   |   |   |   |   |   |   |   |   |   |   |   |  |   |   |   |
E|---------------|---------------|---------------|--------------|---------------|
B|---------------|---------------|---------------|--------------|---------------|
G|---------------|---------------|---------------|--------------|---------------|
D|---------------|---------------|---------------|--------------|---------------|
A|-1---3---1-----|-----1---------|---------------|--------------|---------------|
E|-------------4-|-3-------4---3-|-4-4-----4---4-|-4---4---4----|-4---3---3---3-|



20  |   |   |   |  |   |   |   |   |   |   |   |  |   |   |   |     |   |   |   |
E|--------------|---------------|--------------|-----------------|--------------|
B|--------------|---------------|--------------|-----------------|--------------|
G|--------------|---------------|--------------|-----------------|--------------|
D|--------------|---------------|--------------|-----------------|--------------|
A|--------------|---------------|--------------|-----------------|--------------|
E|-4------------|-4-4-----4---4-|-4---4---4----|-4---3---3---3-3-|-4---4---4----|



25  |   |   |   |   |   |   |   |  |   |   |   |   |   |   |   |  |   |   |   |
E|---------------|--------------|---------------|--------------|---------------|
B|---------------|--------------|---------------|--------------|---------------|
G|---------------|--------------|---------------|--------------|---------------|
D|---------------|--------------|---------------|--------------|-------3-1-----|
A|---------------|--------------|---------------|--------------|---3-3-------3-|
E|-4-4-----4---4-|-4---4---4----|-4---3---3---3-|-4------------|-4-------------|



30  |   |   |   |  |   |   |   |     |   |   |   |  |   |   |   |
E|--------------|-----------------|--------------|-----------------|
B|--------------|-----------------|--------------|-----------------|
G|--------------|-----------------|--------------|-----------------|
D|--------------|-----------------|--------------|---------------0-|
A|-1---1---1----|-1-1-1---------1-|--------------|-----------1-1---|
E|--------------|-------4-3---4---|-4-4-4-4-4----|-4---4---1-------|



34  |   |   |   |   |   |   |   |   |   |   |   |   |   |   |   |   |   |   |   |
E|---------------|---------------|---------------|---------------|--------------|
B|---------------|---------------|---------------|---------------|--------------|
G|---------------|---------------|---------------|---------------|--------------|
D|-1---1---1-----|---------------|---------------|---------------|--------------|
A|-------------1-|-1---3---1-----|-----1---------|---------------|--------------|
E|---------------|-------------4-|-3-------4---3-|-4-4-----4---4-|-4---4---4----|



39  |   |   |   |   |   |   |   |  |   |   |   |   |   |   |   |  |   |   |   |
E|---------------|--------------|---------------|--------------|-----------------|
B|---------------|--------------|---------------|--------------|-----------------|
G|---------------|--------------|---------------|--------------|-----------------|
D|---------------|--------------|---------------|--------------|-----------------|
A|---------------|--------------|---------------|--------------|-----------------|
E|-4---3---3---3-|-4------------|-4-4-----4---4-|-4---4---4----|-4---3---3---3-3-|



44  |   |   |   |  |   |   |   |   |   |   |   |  |   |   |   |   |   |   |   |
E|--------------|---------------|--------------|---------------|--------------|
B|--------------|---------------|--------------|---------------|--------------|
G|--------------|---------------|--------------|---------------|--------------|
D|--------------|---------------|--------------|---------------|--------------|
A|--------------|---------------|--------------|---------------|--------------|
E|-4---4---4----|-4-4-----4---4-|-4---4---4----|-4---3---3---3-|-4------------|



49  |   |   |   |   |   |   |   |  |   |   |   |     |   |   |   |
E|---------------|--------------|-----------------|--------------|
B|---------------|--------------|-----------------|--------------|
G|---------------|--------------|-----------------|--------------|
D|-------3-1-----|--------------|-----------------|--------------|
A|---3-3-------3-|-1---1---1----|-1-1-1---------1-|--------------|
E|-4-------------|--------------|-------4-3---4---|-4-4-4-4-4----|



53  |   |   |   |     |   |   |   |   |   |   |   |   |   |   |   |
E|-----------------|---------------|---------------|---------------|
B|-----------------|---------------|---------------|---------------|
G|-----------------|---------------|---------------|---------------|
D|---------------0-|-1---1---1-----|---------------|---------------|
A|-----------1-1---|-------------1-|-1---3---1-----|-----1---------|
E|-4---4---1-------|---------------|-------------4-|-3-------4---3-|



57  |   |   |   |   |   |   |   |  |   |   |   |   |   |   |   |  |   |   |   |
E|---------------|--------------|---------------|--------------|---------------|
B|---------------|--------------|---------------|--------------|---------------|
G|---------------|--------------|---------------|--------------|---------------|
D|---------------|--------------|---------------|--------------|---------------|
A|---------------|--------------|---------------|--------------|---------------|
E|-4-4-----4---4-|-4---4---4----|-4---3---3---3-|-4------------|-4-4-----4---4-|



62  |   |   |   |  |   |   |   |     |   |   |   |  |   |   |   |   |   |   |   |
E|--------------|-----------------|--------------|---------------|--------------|
B|--------------|-----------------|--------------|---------------|--------------|
G|--------------|-----------------|--------------|---------------|--------------|
D|--------------|-----------------|--------------|---------------|--------------|
A|--------------|-----------------|--------------|---------------|--------------|
E|-4---4---4----|-4---3---3---3-3-|-4---4---4----|-4-4-----4---4-|-4---4---4----|



67  |   |   |   |   |   |   |   |  |   |   |   |   |   |   |   |  |   |   |   |
E|---------------|--------------|---------------|--------------|-----------------|
B|---------------|--------------|---------------|--------------|-----------------|
G|---------------|--------------|---------------|--------------|-----------------|
D|---------------|--------------|-------3-1-----|--------------|-----------------|
A|---------------|--------------|---3-3-------3-|-1---1---1----|-1-1-1---------1-|
E|-4---3---3---3-|-4------------|-4-------------|--------------|-------4-3---4---|



72  |   |   |   |  |   |   |   |     |   |   |   |   |   |   |   |
E|--------------|-----------------|---------------|---------------|
B|--------------|-----------------|---------------|---------------|
G|--------------|-----------------|---------------|---------------|
D|--------------|---------------0-|-1---1---1-----|---------------|
A|--------------|-----------1-1---|-------------1-|-1---3---1-----|
E|-4-4-4-4-4----|-4---4---1-------|---------------|-------------4-|



76  |   |   |   |   |   |   |   |   |   |   |   |  |   |   |   |   |   |   |   |
E|---------------|---------------|--------------|---------------|--------------|
B|---------------|---------------|--------------|---------------|--------------|
G|---------------|---------------|--------------|---------------|--------------|
D|---------------|---------------|--------------|---------------|--------------|
A|-----1---------|---------------|--------------|---------------|--------------|
E|-3-------4---3-|-4-4-----4---4-|-4---4---4----|-4---3---3---3-|-4------------|



81  |   |   |   |
E|--------------|
B|--------------|
G|--------------|
D|--------------|
A|--------------|
E|--------------|

Clipes

Cifra Club Pro

Aproveite o Cifra Club com benefícios exclusivos e sem anúncios
7 dias grátis
Cifra Club Pro
Aproveite o Cifra Club com benefícios exclusivos e sem anúncios
7 dias grátis