busca

Grato a Ti

Harpa Cristã

Tom: F
E|--------------------|--------------|-8------------------|-10-8---------|
B|----------10--10-10-|-11----8--10--|----8--10-11--10-11-|-11-10-11-10--|
G|----10-12-10--10-10-|-10-10-10-10--|-9--9--10-12--11-12-|-------12-10--|
D|-10-10-10-10--10-10-|-12-12-11-10--|-10-10-10-10--10-10-|-10-10-10-10--|
A|-12-12-13-----------|-------8--8---|--------------------|-------7------|
E|-13-13-13-13--13-13-|-13-13--------|-8--8--8--8---8--8--|-8--10----13--|

E|--------------------|--------------|----------8--0--0--|-3--------6-|
B|----------10--9--10-|-11----8--10--|-8--8--8-----------|-0-6-3------|
G|----10-12-10--10-10-|-10-10-10-10--|-9--9--9--9--0--0--|---4-4-5----|
D|-10-10-10-10--9--10-|-12-12-11-10--|-10-10-10----10-10-|-0-0-3------|
A|-12-12-13-----------|-8--8--8--8---|-10-10-10-10-------|-------7----|
E|-13-13-13-13--13-13-|--------------|-------------------|-3-3-3-8----|

E|-5-8------8---|----5----5--|-10-10-10-8-5-1-|-1-0-1----|--------------------|
B|-6-10--10-10--|-------6----|-6--6--6--6---3-|-3-3-3-8--|----------10--9--10-|
G|-------10-----|-10-5----5--|------------5-2-|-4-4-4-9--|----10-12-10--10-10-|
D|--------------|-7-----7----|-8--8--8--7-7-0-|-------8--|-10-10-10-10--8--10-|
A|-8-8---8--8---|-8--8--8-8--|----------8-8---|----------|-12-12-13-----8--8--|
E|--------------|------------|-6--6--6--------|-3-3-3-8--|-13-13-13-13--------|

E|--------------|----8--10-8--5---|-5-5-3----|----------|
B|-11----8--10--|-11----6--6--6-6-|-6-5-5-6--|----------|
G|-10-10-10-10--|-10-10-------5---|-5-5-3----|----------|
D|-12-12-11-10--|-0-----8--7----9-|-------7--|----------|
A|-8--8--8--8---|-13-12---------5-|-----3-8--|----------|
E|--------------|----8--6--8--8---|-8-8------|----------|

Clipes

Cifra Club Pro

Aproveite o Cifra Club com benefícios exclusivos e sem anúncios
7 dias grátis
Cifra Club Pro
Aproveite o Cifra Club com benefícios exclusivos e sem anúncios
7 dias grátis