busca

Guarda o Contacto

Harpa Cristã

Tom: Em
E|------------------------|------------8-----------|-----0-1--0--7----5---|
B|-5---6--7---8--10---8---|--------8------12-------|-0---1-3--8-------6---|
G|-5---7--8---9--10---9---|-9---10-9---9--10-------|-0---0-0--0--0----0---|
D|-5------10--10-10---10--|-10--12-10-----0--------|-12-------------------|
A|-----10-----------------|-10--10-----10-10-------|----------------------|
E|-8---8--8---8--8----8---|-8---8--8---8-----------|-------------3----3---|

E|-3---5-3--1--0--------|-0---1-2--3--5----3---|-----3-----------------|
B|-5---6-5--3--1--------|-1---3-4--5--6----5---|-5---5-13--12-10-------|
G|-0---0-0--0--0--------|-0---0-5--5--5----5---|-5---5-12--12-10-------|
D|----------------------|----------------------|-5-----10--10-10-------|
A|-------0--2--3--------|-3---3-3--3--3----3---|-3---3-----------------|
E|-3---3----------------|----------------------|-------12--12-13-------|

E|---------------12---0---|-12--10-7------8--------|-8----------8--7----7---|
B|-13--13-15--13------13--|-0---0------8-----------|-----8--10--------------|
G|-10--10-14--14-12---12--|-10--10-10--10-9--------|-9---9--10--9--10---10--|
D|--------12--12-10-------|--------12--9--10-------|-----10-10--10-12---12--|
A|-12--12-9---9--10---10--|-10--10-10--10----------|-10------------10---10--|
E|-13--13-----------------|---------------8--------|-8---8--8---8-----------|

E|-10-----7---10-8--------|-----8--------------------12-|-10----------10-------|
B|-0---8------0-----------|-10--10-12--10-8------8---8--|------10-----0--------|
G|-10--10-10--10-9--------|-10-----12--10-9---9--9------|-11---11-----10-------|
D|-----9--12-----10-------|-10--10-10--10-10--10-10--10-|-10---10--------------|
A|-10--10-10--10----------|-8---8--8---8------10--------|-------------10-------|
E|---------------8--------|---------------8---8--8---8--|-10---10--------------|

E|-0---1-2--3--5----3---|-----3-----------------|---------------12---0---|
B|-----3-4--5--4----5---|-5---5-13--12-10-------|-13--13-15--13------13--|
G|-5---4-2----------5---|-5---5-12--12-10-------|-10--10-14--14-12---12--|
D|----------5--4--------|-5-----10--10-10-------|--------12--12-10-------|
A|-3---3-3--3--3----3---|-3---3-----------------|-12--12-9---9--10---10--|
E|----------------------|-------12--12-13-------|-13--13-----------------|

E|-12--10-7------8--------|----------------------|
B|-0---0------8-----------|----------------------|
G|-10--10-10--10-9--------|----------------------|
D|--------12--9--10-------|----------------------|
A|-10--10-10--10----------|----------------------|
E|---------------8--------|----------------------|

Clipes

Cifra Club Pro

Aproveite o Cifra Club com benefícios exclusivos e sem anúncios
7 dias grátis
Cifra Club Pro
Aproveite o Cifra Club com benefícios exclusivos e sem anúncios
7 dias grátis