busca

Manso e Suave

Harpa Cristã

Tom: A
[1ª Voz]  Manso e Suave
Nº: 568 DA HARPA CRISTÃ
TOM:  Ab
COMPASSO: 6/8



1   |   |   |   |   |   |   |   |   |    |   |   |  |   |   |   |   |   |
E|-----------------------|-----------------------|-----------------------|
B|-1---------------------|-------1---------------|-1---------------------|
G|---3-1-1-0-1-3-1-------|-1-1-1----3-1-3--------|---3-1-1-0-1-3-1-------|
D|-----------------3-3-1-|-----------------------|-----------------3-3-1-|
A|-----------------------|-----------------------|-----------------------|
E|-----------------------|-----------------------|-----------------------|



4   |   |   |    |   |   |    |   |   |   |   |   |  |   |     |   |   |   |
E|-------------------------|----------------------|------------------------|
B|-----2-1-----------------|----------1--------1--|-------1-1--3--4---3-2--|
G|-1-1------1-1-1----------|-3-----------1---3----|-3-3-3------------------|
D|-----------------------1-|----------------------|------------------------|
A|-------------------------|----------------------|------------------------|
E|-------------------------|----------------------|------------------------|



7   |   |   |   |   |   |   |   |   |   |   |   |  |   |   |   |   |   |
E|-----------------------|----------------------|-----------------------|
B|-1---------------------|-----2-1--------------|-1---------------------|
G|---3-1-1-0-1-3-1-------|-1-1-----1-3-1--------|---3-1-1-0-1-3-1-------|
D|-----------------3-3-1-|----------------------|-----------------3-3-1-|
A|-----------------------|----------------------|-----------------------|
E|-----------------------|----------------------|-----------------------|



10  |   |   |    |   |   |  |   |   |   |   |   |   |   |   |    |   |   |
E|-----------------------|-----------------------|-------------------------|
B|-------1---------------|-1---------------------|-----2-1-----------------|
G|-1-1-1----3-1-3--------|---3-1-1-0-1-3-1-------|-1-1------1-1-1----------|
D|-----------------------|-----------------3-3-1-|-----------------------1-|
A|-----------------------|-----------------------|-------------------------|
E|-----------------------|-----------------------|-------------------------|



13  |   |   |   |   |   |  |   |     |   |   |   |  |   |   |   |   |   |
E|----------------------|------------------------|-----------------------|
B|----------1--------1--|-------1-1--3--4---3-2--|-1---------------------|
G|-3-----------1---3----|-3-3-3------------------|---3-1-1-0-1-3-1-------|
D|----------------------|------------------------|-----------------3-3-1-|
A|----------------------|------------------------|-----------------------|
E|----------------------|------------------------|-----------------------|



16  |   |   |   |   |   |  |   |   |   |   |   |   |   |   |    |   |   |
E|----------------------|-----------------------|-----------------------|
B|-----2-1--------------|-1---------------------|-------1---------------|
G|-1-1-----1-3-1--------|---3-1-1-0-1-3-1-------|-1-1-1----3-1-3--------|
D|----------------------|-----------------3-3-1-|-----------------------|
A|----------------------|-----------------------|-----------------------|
E|----------------------|-----------------------|-----------------------|



19  |   |   |   |   |   |   |   |   |    |   |   |    |   |   |   |   |   |
E|-----------------------|-------------------------|----------------------|
B|-1---------------------|-----2-1-----------------|----------1--------1--|
G|---3-1-1-0-1-3-1-------|-1-1------1-1-1----------|-3-----------1---3----|
D|-----------------3-3-1-|-----------------------1-|----------------------|
A|-----------------------|-------------------------|----------------------|
E|-----------------------|-------------------------|----------------------|



22  |   |     |   |   |   |  |   |   |   |   |   |   |   |   |   |   |   |
E|------------------------|-----------------------|----------------------|
B|-------1-1--3--4---3-2--|-1---------------------|-----2-1--------------|
G|-3-3-3------------------|---3-1-1-0-1-3-1-------|-1-1-----1-3-1--------|
D|------------------------|-----------------3-3-1-|----------------------|
A|------------------------|-----------------------|----------------------|
E|------------------------|-----------------------|----------------------|



25  |   |   |   |   |   |   |   |   |    |   |   |  |   |   |   |   |   |
E|-----------------------|-----------------------|-----------------------|
B|-1---------------------|-------1---------------|-1---------------------|
G|---3-1-1-0-1-3-1-------|-1-1-1----3-1-3--------|---3-1-1-0-1-3-1-------|
D|-----------------3-3-1-|-----------------------|-----------------3-3-1-|
A|-----------------------|-----------------------|-----------------------|
E|-----------------------|-----------------------|-----------------------|



28  |   |   |    |   |   |    |   |   |   |   |   |  |   |     |   |   |   |
E|-------------------------|----------------------|------------------------|
B|-----2-1-----------------|----------1--------1--|-------1-1--3--4---3-2--|
G|-1-1------1-1-1----------|-3-----------1---3----|-3-3-3------------------|
D|-----------------------1-|----------------------|------------------------|
A|-------------------------|----------------------|------------------------|
E|-------------------------|----------------------|------------------------|



31  |   |   |   |   |   |   |   |   |   |   |   |  |   |   |   |   |   |
E|-----------------------|----------------------|----------------------|
B|-1---------------------|-----2-1--------------|----------------------|
G|---3-1-1-0-1-3-1-------|-1-1-----1-3----------|----------------------|
D|-----------------3-3-1-|----------------------|----------------------|
A|-----------------------|-------------11-------|----------------------|
E|-----------------------|----------------------|----------------------|

Clipes

Cifra Club Pro

Aproveite o Cifra Club com benefícios exclusivos e sem anúncios
7 dias grátis
Cifra Club Pro
Aproveite o Cifra Club com benefícios exclusivos e sem anúncios
7 dias grátis