/ / / / / / / /
busca

Ó Acorda, Desperta!

Harpa Cristã

Tom: Bb
E|------------------|---------6-----6-|-10--6-----------|-------------6-5-|
B|------------------|-6-----6-----6---|-6---------------|---------3---3-3-|
G|-------------7-8--|-7---7-7-7---7-7-|-----7-------7-7-|-8---7-5-3-------|
D|-------------8-10-|-----8-----------|-8-----------8-8-|-10--8-7-3---3-3-|
A|-------------8-8--|-8---8-8-8---8-8-|-----8-------8-8-|-8---8-8---------|
E|-------------6-6--|-6---6-6-6---6-6-|-6---6-------6-6-|---------6---6-6-|

E|-3-----------6-8-|-10--8---------------|-11----------------|-10--8--6-5---3-5-|
B|-5---6-----------|-6------11-8---10-11-|----------------11-|--------3-4---4-4-|
G|-3-----------7-8-|-----10-10-8---10-12-|-12--12------10----|-10--8--3-5---3-5-|
D|-----7-----------|-8------8--8---------|-----13------12-12-|--------3-3---3-3-|
A|-3---8-------8-8-|-----12--------13-13-|-13--13------13-13-|-13--12-----------|
E|-------------6-6-|-6---8--10-11--11-11-|-11--11------13-13-|-13--13-----------|

E|-6-----------5-6-|-8---8--10-11--------|-6-----------6-8-|-10--6-10-8-6-5-6-|
B|-3-----------4-3-|---------------10-10-|-----------------|-6-----6--5---5-5-|
G|-3-----------5-3-|-10--10-10-10--8--8--|-7-----------7-8-|-----7--------5---|
D|-------------3-3-|-7---7--8--10--10-10-|-8---------------|-8-----8--5-----5-|
A|-----------------|-8---8--8--8---8--8--|-------------8-8-|-----8------------|
E|-6---------------|---------------------|-6-----------6-6-|-6---6-6--8---8-8-|

E|-8-------------10-|-10--8-6-----8--6---|-------------6--8--|-10--8-6-----10-8-|
B|-6-----------6----|-6---6-6--10-10-8-8-|-6-----------6--8--|-------3-10-------|
G|-------------7-7--|----------10------8-|-7-----------------|-10--8-3-8---10-8-|
D|-7-----------8-8--|-8---7-8--8-----8-8-|-8-----------8--8--|-8---7-3-10--8--7-|
A|-8----------------|----------6-----6-6-|-------------------|-8---8---8---8--8-|
E|-------------6-6--|-6---8-10-----------|-6-----------10-11-|------------------|

E|-6------------|
B|--------------|
G|-7------------|
D|-8------------|
A|--------------|
E|-6------------|

Clipes