busca

Ó Desce, Fogo Santo

Harpa Cristã

Tom: Bm
E|------------------------|-0------2--2--------3--2-|-0---------5--5---5-7--7-|
B|-------10-10--10-12--12-|-0----2-3--3--3---3-2--3-|-2---------2--3---3-3--3-|
G|-------7--7---7--7---7--|-0------2--2--2---4-2--2-|-2---------2-------------|
D|-------0--0---0--0---0--|-0------0--0--4---5-2--0-|--------------4---4-5----|
A|-------9--9---9--10--10-|-------------------------|-0---------0--5---5----5-|
E|------------------------|-------------------------|--------------------3--3-|

E|-0-----2--2--------2--0-|-------------10-----3--7-|-5-----------10--10-9--7-|
B|-0-----------3---3-3--2-|----------10-7---7--3--3-|-3----7---10-7---7-------|
G|-------3--3--4-----2--0-|-7--------7------7-------|------7---11--------9--7-|
D|----------4--4---5------|-0--------0--7---7--5--5-|-4----7---7--7---7--7--6-|
A|-4---2-4-----2---1----0-|-9--------9--------------|-5------------------7--7-|
E|-3-----2--2--------5----|-------------10--10-7--3-|------10--10-10--7-------|

E|-5--------5--7---7-5--5-|-3-----2--7--5-----2--0--|-------------------------|
B|-------------------2--0-|-------3--3--3---3-3-----|-------------------------|
G|-6--------7--7---6------|-4---2-2---------0-2--0--|-------------------------|
D|-7--------7--5---5-2--4-|-2--------5--4--------11-|-12----------------------|
A|----------9------7-5--5-|-5---4-5-----0---2-0--0--|-9-----------------------|
E|-5----------------------|----------3--------------|-10----------------------|

Clipes

Cifra Club Pro

Aproveite o Cifra Club com benefícios exclusivos e sem anúncios
7 dias grátis
Cifra Club Pro
Aproveite o Cifra Club com benefícios exclusivos e sem anúncios
7 dias grátis