busca

O Peregrino Na Terra

Harpa Cristã

Tom: Fm
E|-6-------------------6-|-8-----------11-------|-10---8--6------6--------|
B|-8----9--8---8---9---8-|-------------13-------|-11---9--8---9--8-----9--|
G|------10-8---8---10----|----------------------|-------------10-------10-|
D|-----------------------|-6--------------------|-8-----------------------|
A|-6---------------------|----------------------|-------------------------|
E|-----------------------|-4--------------------|-6-----------------------|

E|----------------------|-6-------------------6-|-8-----------11-------|
B|-8--------------------|-8----9--8---8---9---8-|-------------13-------|
G|-8--------------------|------10-8---8---10----|----------------------|
D|----------------------|-----------------------|-6--------------------|
A|-6--------------------|-6---------------------|----------------------|
E|----------------------|-----------------------|-4--------------------|

E|-10---8--6------6--------|----------------------|-------------10------8-|
B|-11---9--8---9--8-----9--|-8--------------------|-9---8---9---11------9-|
G|-------------10-------10-|-8--------------------|-10--9---10------------|
D|-8-----------------------|----------------------|-8---------------------|
A|-------------------------|-6--------------------|-----------------------|
E|-6-----------------------|----------------------|-6---------------------|

E|-8-----------6--------|-------------10------8-|-6--------------------|
B|-9-----------8--------|-9---8---9---11------9-|-8--------------------|
G|----------------------|-10--9---10------------|----------------------|
D|----------------------|-8---------------------|----------------------|
A|-6--------------------|-----------------------|-6--------------------|
E|----------------------|-6---------------------|----------------------|

E|-6-------------------6-|-8-----------11-------|-10---8--6------6-----10-|
B|-8----9--8---8---9---8-|-------------13-------|-11---9--8---9--8-----9--|
G|------10-8---8---10----|----------------------|-------------10-------10-|
D|-----------------------|-6--------------------|-8-----------------------|
A|-6---------------------|----------------------|-------------------------|
E|-----------------------|-4--------------------|-6-----------------------|

E|-11-------------------|-6---------------8---6-|-4--------------------|
B|-8--------------------|-8---8---8---8---9---4-|-6-------6------------|
G|-8--------------------|-8---8---8---8---7-----|-7---7---3---7--------|
D|----------------------|-----------------------|-----0---3------------|
A|----------------------|-6---6---6---6---------|----------------------|
E|-11-------------------|-----------------6---3-|-6-----------6--------|

E|-4---------------6---4-|----------------------|-6---------------8---6-|
B|-6---6---3---6---8---6-|-8--------------------|-8---8---8---8---9---4-|
G|-7---7---3---7---8---7-|-8-----------8--------|-8---8---8---8---7-----|
D|---------3-------------|-8-------8------------|-----------------------|
A|-----5-----------------|----------------------|-6---6---6---6---------|
E|-6-----------6---6---6-|-11-------------------|-----------------6---3-|

E|-4-----------4--------|-4---3---4---6-------10-|-11-------------------|
B|-6-----------6--------|-6---5---6---8-------9--|-8--------------------|
G|-7-------7---7--------|-7---6---6---8-------10-|-8--------------------|
D|---------6------------|---------------------6--|-8--------------------|
A|-----5---8------------|------------------------|----------------------|
E|-6-----------6--------|-6---6---6---6-------6--|-11-------------------|

E|----------------------|
B|----------------------|
G|----------------------|
D|----------------------|
A|----------------------|
E|----------------------|

Clipes

Cifra Club Pro

Aproveite o Cifra Club com benefícios exclusivos e sem anúncios
7 dias grátis
Cifra Club Pro
Aproveite o Cifra Club com benefícios exclusivos e sem anúncios
7 dias grátis