busca

Vencerá

Harpa Cristã

Tom: A
E|-9-5-4-7-5-----|-------2-0----|-10-9--0-----------7--9-|-7-------7-------------|
B|-5---0-------5-|-2-3-4-3-2----|-0-----12-10-9--10------|-----7-----------------|
G|---6-7-7-6---6-|-2-4-5-2-2----|-9--9-----9--9--9--9--9-|-8---8---7-------------|
D|-7-7---6-----7-|-2-2-7--------|-------------12-11----7-|-----7-----------------|
A|-0-0-7-7-7---0-|-0-0-0-0-0----|----12-11-9--------11-7-|-9-------11-9-7--------|
E|---------5-----|--------------|-12-12-12-12-12-12-12---|-7---7---12-----10-9-7-|

E|-9------7-5-----|-9-9-10-9------|------------9--------|-0---7--------|
B|---10-9-------5-|-6-6-6--6-7----|-10-10-9-10---10-9-7-|---------10---|
G|-9-6--7-7-6---6-|----------9----|-8--8--8-8--9-9--9-7-|-7---7--------|
D|-7-7--9-6-----7-|-6-6-6--6-8----|-9--9--9-9--7-11-9-7-|---------11---|
A|-0-0--7-7-7-----|----------9----|-9--9--9-9--7-7--7-7-|-11--11--0----|
E|----------5---5-|-9-9-9--9------|---------------------|-12--12--12---|

E|-9-----9--9-----9-----9--9-----|-9--9--------0--0--0--|
B|-10----10-10----10----10-10----|-10-10-12----0--0--0--|
G|-9--9-----9--9--9--9-----9--9--|-9--9--14-14-14-13-13-|
D|-------------------------------|-------12-11-12-12-12-|
A|-12-12----------12-12----------|-12-12-12-12----------|
E|----------12-12----------12-12-|----------------------|

E|-10----10-10----10----10-10----|-12-10-9--7-9----|-9------7-5-----|
B|-12----12-12----12----12-12----|-14-12-10-9-10---|---10-9-------5-|
G|-9--9-----9--9--9--9-----9--9--|-9--9--9--9-9----|-9-6--7-7-6---6-|
D|-------------------------------|------------7----|-7-7--9-6-----7-|
A|-11-11----------11-11----------|----------7------|-0-0--7-7-7-----|
E|----------12-12----------12-12-|-12-12-12--------|----------5---5-|

E|-12-12----9---------|----------9--9--------10-|-9--------------|--------------|
B|-------15----12-----|-------10-------10-10----|-----12---------|--------------|
G|-9--9--9--9--11--11-|-9--9-----9--9--9--11-11-|-9------14-14---|--------------|
D|-11-11-9---------12-|-11-11-11-------11-12----|-----12-11-11---|--------------|
A|-12-12-12-12-12-----|-12-12-12-12-12----9--12-|-12--11-0--0----|--------------|
E|-------------10-----|-12-12-12-12-12-12----10-|-12-----12-12---|--------------|

Clipes

Cifra Club Pro

Aproveite o Cifra Club com benefícios exclusivos e sem anúncios
7 dias grátis
Cifra Club Pro
Aproveite o Cifra Club com benefícios exclusivos e sem anúncios
7 dias grátis