Gravel To Tempo

Hayley Kiyoko

A
123
X02220
Am
123
X02210
Bb
234
X13331
C
123
X32010
Dm
123
XX0231
F
234
133211
Gm
34
355333
Tom: G
[Primeira Parte]

Bb                F
Catch my name for kicks
                 Dm               
Thinking I would be right by your 
C
side
  Bb            F
I don't feel adequate
               Dm             C
Thinking I'm a monster in disguise
Bb
We've gone down every list
F                 C
Stuck but I have got to begin to 
resist
Am                 Bb
Caught up with the fact that life 
will be dark
F          C            Am
But can we handle being kids

[Pré-Refrão]

             Bb
I'll do this my way
                F
Don't matter if I break
           Dm      C
I gotta be on my own
             Bb
Lost in this feeling
                   F
Don't never need a reason
           Dm
I gotta be on my own

[Solo Refrão]


E|------10-8--------------------
B|-8-10------10-8/6--11/10----8-
G|------------------------------
D|------------------------------
A|------------------------------
E|------------------------------

E|---10-8-----------------| 
B|10------10-8/6---8/5----| 
G|------------------------| 
D|------------------------| 
A|------------------------| 
E|------------------------| 



E|------10-8----------------------
B|-8-10------10-8/6--11/10--11/10-
G|--------------------------------
D|--------------------------------
A|--------------------------------
E|--------------------------------

E|----------------------| 
B|--10-8-8-8------10/8--| 
G|-----------7-10-------| 
D|----------------------| 
A|----------------------| 
E|----------------------| 


[Refrão]
                    Bb
Oh, oh, oh, oh, oh, oh
        F           Gm
Oh, oh, oh, oh, oh, oh
Dm C Oh, oh, oh, oh, oh, oh Am Oh, oh, oh, oh, oh, oh Bb Oh, oh, oh, oh, oh, oh F Gm Oh, oh, oh, oh, oh, oh Dm A I gotta be on my own [Segunda Parte] Bb F Try to stand the test Dm But the night is crawling through C my eyes Bb F I thought I was depressed Dm C But I think I just needed to cry [Pré-Refrão] Bb I'll do this my way F Don't matter if I break Dm C I gotta be on my own Bb Lost in this feeling F Don't never need a reason Dm I gotta be on my own [Refrão] Bb Oh, oh, oh, oh, oh, oh F Gm Oh, oh, oh, oh, oh, oh Dm C Oh, oh, oh, oh, oh, oh Am Oh, oh, oh, oh, oh, oh Bb Oh, oh, oh, oh, oh, oh F Gm Oh, oh, oh, oh, oh, oh Dm A I gotta be on my own ( Bb F Dm C ) [Pré-Refrão] Bb I'll do this my way F Don't matter if I break Dm C I gotta be on my own Bb Lost in this feeling F Don't never need a reason Dm C I gotta be on my own [Refrão] Bb Oh, oh, oh, oh, oh, oh F Gm Oh, oh, oh, oh, oh, oh Dm C Oh, oh, oh, oh, oh, oh Am Oh, oh, oh, oh, oh, oh Bb Oh, oh, oh, oh, oh, oh F Gm Oh, oh, oh, oh, oh, oh Dm A I gotta be on my own [Final] Bb F Dm C Bb F Dm
Composição: Cecil Bernardy / Hayley Kiyoko / Jono DorrColaboração e revisão: Evellyn BorgesVinicius BassottoAmanda Silva

Utilizamos cookies para personalizar sua experiência. Ao acessar o site, você concorda com a nossa Política de Privacidade.