Esqueci Você

Henrique e Diego

A7
12
X02020
Am
123
X02210
C
123
X32010
Dm
123
XX0231
Dm7
34
X57565
E
123
022100
G
123
320003
Tom: G
[Intro] Dm7  G  C  Am
        Dm7  E  Am


E|--------------------------------
B|-2-3-6-6-6-5-3-3--6-6-6-5-3-3---
G|-2-4-7-7-7-5-4-4--7-7-7-5-4-4---
D|--------------------------------
A|--------------------------------
E|--------------------------------



E|--------------------------------
B|-8-8-8-6-5-5-3-5-5-3-1-1--------
G|-9-9-9-7-5-5-4-5-5-4-2-2--------
D|--------------------------------
A|--------------------------------
E|--------------------------------



E|--------------------------------
B|-6-5-3-3--6-5-3-3-1-3-1--1p0--1-
G|-7-5-4-4--7-5-4-4-2-4-2-------2-
D|--------------------------------
A|--------------------------------
E|--------------------------------

E|----------| 
B|1-1-------| 
G|2-2-------| 
D|----------| 
A|----------| 
E|----------| 


[Primeira Parte]

         Dm7           G
Eu esqueci você, to ligando em plena
 madrugada
                          Am
E te acordando pra dizer,    eu 
esqueci você
           Dm7
Eu já nem lembro mais
         G
Que teu beijo tinha gosto de saudade

Que no seu perfume era tão doce
          C         A7
Eu nem me   lembro mais

[Refrão]

          Dm7
Se eu te ligo na mesa do bar
      G
Se você já cansou de escutar
        C
Que um dia eu iria esquecer
             Am
Esse dia chegou, acabou de chegar
           Dm7
Se ainda guardo lembranças de nós
      G
Na memória do meu celular
       C
Se carrego comigo a foto
Am Que a gente tirou la na beira do mar Dm7 E Tudo isso é pra você lembrar Am Lembrar que eu te esqueci [Solo] Dm7 G C Am Dm7 E Am E|-------------------------------- B|-2-3-6-6-6-5-3-3--6-6-6-5-3-3--- G|-2-4-7-7-7-5-4-4--7-7-7-5-4-4--- D|-------------------------------- A|-------------------------------- E|-------------------------------- E|-------------------------------- B|-8-8-8-6-5-5-3-5-5-3-1-1-------- G|-9-9-9-7-5-5-4-5-5-4-2-2-------- D|-------------------------------- A|-------------------------------- E|-------------------------------- E|-------------------------------- B|-6-5-3-3--6-5-3-3-1-3-1-1-1----- G|-7-5-4-4--7-5-4-4-2-4-2-2-2----- D|-------------------------------- A|-------------------------------- E|-------------------------------- [Primeira Parte] Dm7 G Eu esqueci você, to ligando em plena madrugada Am E te acordando pra dizer, eu esqueci você Dm7 Eu já nem lembro mais G Que teu beijo tinha gosto de saudade Que no seu perfume era tão doce C A7 Eu nem me lembro mais [Refrão] Dm7 Se eu te ligo na mesa do bar G Se você já cansou de escutar C Que um dia eu iria esquecer Am Esse dia chegou, acabou de chegar Dm7 Se ainda guardo lembranças de nós G Na memória do meu celular C Se carrego comigo a foto Am Que a gente tirou la na beira do mar Dm7 E Tudo isso é pra você lembrar Am Lembrar que eu te esqueci Dm7 Se eu te ligo na mesa do bar G Se você já cansou de escutar C Que um dia eu iria esquecer Am Esse dia chegou, acabou de chegar Dm7 Se ainda guardo lembranças de nós G Na memória do meu celular C Se carrego comigo a foto Am Que a gente tirou la na beira do mar Dm7 E Tudo isso é pra você lembrar Am Lembrar que eu te esqueci Dm7 E Tudo isso é pra você lembrar Am Dm Am Lembrar que eu te esqueci
Composição: Jairo Alves Dos Santos / Juliano Tchula / Marília MendonçaColaboração e revisão: Thiago AlmeidaGladyston AndradeJudson Jr.Higor Almeidae mais 1