Zuar e Beber

Henrique e Diego

Am
123
X02210
Dm
123
XX0231
F
234
133211
G
123
320003
Tom: G
F                   Am
Eu vou zuar e beber
               F
Vou locar uma Van
              G
E levar a mulherada lá pro meu AP
F                    Am
 Que é pra gente beber
              F                    
E depois paragadá, pa ra ra, pa ra 
Am
ra
              F                   
e depois paragadá, pa ra ra, pa ra 
Am
ra... (2x)


Solo: F  Am  F  G
E|-------------5----------------5-
B|--------------------------------
G|-2-2-2-2-2-2---2--2-2-2-2-2-2---
D|--------------------------------
A|--------------------------------
E|--------------------------------

E|---------------5------------------
B|------------------------3-5-3---3-
G|2--2-2-2-2-2-2---2--2-5-------5---
D|----------------------------------
A|----------------------------------
E|----------------------------------



E|-------------5----------------5-
B|--------------------------------
G|-2-2-2-2-2-2---2--2-2-2-2-2-2---
D|--------------------------------
A|--------------------------------
E|--------------------------------

E|---------------5------------------
B|------------------------3-5-3---3-
G|2--2-2-2-2-2-2---2--2-5-------5---
D|----------------------------------
A|----------------------------------
E|----------------------------------

E|--5-3---3-----| 
B|------5-------| 
G|--------------| 
D|--------------| 
A|--------------| 
E|--------------| 


F Hoje tem farra Am Vou fazer o movimento F Lá no meu apartamento G Entrou, gostou , gamou, quer mais... F Am Já preparei, abasteci a geladeira F Tá lotada de cerveja G O muído vai ser bom demais... Dm Am O prédio vai balançar Dm Am Quando a galera dançar Dm F E a cachaça subir G Fazer zum, zum... Dm Am Não tem hora pra parar Dm Am O cheiro de amor no ar Dm F Vai todo mundo pirar G E ficar nu... Eu vou zuar e beber ...
Composição: Dalmo Beloti / Latino / Luizinho Lino / Marquinhos MaraialColaboração e revisão: Marcelo OliveiraCarlos Marianoroselito deucherDiego Marques