busca

10 Minutos Longe de Você (part. Victor e Leo)

Henrique e Juliano

Tom: C
   Am                G
Dizem que os olhos são como espelhos
          Dm
Que seu brilho sempre reflete aquilo
                E
Que seu coração   tá cheio
             Am              G
Dizem que a boca descreve momentos
       Dm
Com palavras de amor revelando
                    E
O que trago no meu peito

[Pré-Refrão]

F
  Na minha história com você

                    Am
Não é tão diferente

E no brilho dos seus olhos vejo
            G
O quando você sente
                Dm   E
Quando estou ausente

F
  E se você me ouve agora
                Am
Vai me entender

Que falta uma metade
                   G
Tudo é nada sem você
                   E
Eu to chegando pra   te ver

[Refrão]

C
 Tome um banho de flores

Passe o seu perfume
G
  Coloque aquela roupa
              Dm
Que me traz ciúme
                 F              E
Que eu estou chegando para de amar

C
  Me espera com um sorriso

De lábios vermelhos
G
  Prepare a nossa cama
              Dm
Põe vinho no gelo
                  F
Que eu quero brindar para esquecer
       E
Esses 10 minutos
 F          G  Am
Longe de você

[Solo] F  G  Am  G  C
       F  G  Am  C

[Parte 1 de 2]

E|--------------------------------------5~------------|
B|-10-8-10-8~--3/5~-------5---------------------------|
G|------------------7-5-7-------------5---------------|
D|--------------------------5-7~----7-----------------|
A|--------------------------------7-------------------|
E|----------------------------------------------------|

[Parte 2 de 2]

E|------------8-7-5-7-8-7-5~-8-7\---------------------|
B|-10-8-10-8~-----------------------------------------|
G|---------------------------------5h7-5~\------------|
D|----------------------------------------------------|
A|----------------------------------------------------|
E|----------------------------------------------------|

[Pré-Refrão]

F
  Na minha história com você
                    Am
Não é tão diferente

E no brilho dos seus olhos vejo
            G
O quando você sente
                Dm   E
Quando estou ausente

F
  E se você me ouve agora
                Am
Vai me entender

Que falta uma metade
                   G
Tudo é nada sem você
                   E
Eu to chegando pra   te ver

[Refrão]

C
 Tome um banho de flores

Passe o seu perfume
G
  Coloque aquela roupa
              Dm
Que me traz ciúme
                 F              E
Que eu estou chegando para de amar

C
  Me espera com um sorriso

De lábios vermelhos
G
  Prepare a nossa cama
              Dm
Põe vinho no gelo
                  F
Que eu quero brindar para esquecer
       E          C
Esses 10 minutos longe

C
 Tome um banho de flores

Passe o seu perfume
G
  Coloque aquela roupa
              Dm
Que me traz ciúme
                 F              E
Que eu estou chegando para de amar

C
  Me espera com um sorriso

De lábios vermelhos
G
  Prepare a nossa cama
              Dm
Põe vinho no gelo
                  F
Que eu quero brindar para esquecer
       E
Esses 10 minutos
 F          G  Am
Longe de você

[Final] F  G  Am

Clipes

Cifra Club Pro

Aproveite o Cifra Club com benefícios exclusivos e sem anúncios
Cifra Club Pro
Aproveite o Cifra Club com benefícios exclusivos e sem anúncios