busca

Amei Demais

Henrique e Juliano

Tom: C
Intro: ( F G C F )(2x)
       ( Am G )
Solo:
E|---------------------------------------------------------------------------|
B|--5-3------------------------5-8-5-----/6-5hp5-----------------------8--8-8|
G|------5-------4h5-4----4-5-7-------7-5---------5-5--------4-5--7-5-4-------|
D|--------5/7~---------7-----------------------------5/7--7------------------|
A|---------------------------------------------------------------------------|
E|---------------------------------------------------------------------------|

C                  G                      Am
  É melhor viver sozinho do que mal acompanhado
                 F
  Eu sei, dessa vez eu vacilei
C                      G
  Dei amor a quem não merecia
              Am          F        Em  Dm
  E só me machuquei, te amei e me ferrei

                   F                           C      G
  Mas agora você quer voltar dizendo que se arrependeu
Dm                  F                     C
  Me desculpe a sinceridade, mas estou em outra
                G           C
  E dessa vez você me perdeu

Refrão 2x:
         G               Am
 Amei demais, não fui capaz
          F                     C
 De enxergar o mal que você me fez  
          G             Am
 Mas eu mudei, me valorizei
              F                  C
 E vi que te amar foi uma estupidez

Solo:
E|---------------------------------------------------------------------------|
B|--5-3------------------------5-8-5-----/6-5hp5-----------------------8--8-8|
G|------5-------4h5-4----4-5-7-------7-5---------5-5--------4-5--7-5-4-------|
D|--------5/7~---------7-----------------------------5/7--7------------------|
A|---------------------------------------------------------------------------|
E|---------------------------------------------------------------------------|


C                  G                      Am
  É melhor viver sozinho do que mal acompanhado
                 F
  Eu sei, dessa vez eu vacilei
C                      G
  Dei amor a quem não merecia
              Am          F        Em  Dm
  E só me machuquei, te amei e me ferrei

                   F                           C      G
  Mas agora você quer voltar dizendo que se arrependeu
Dm                  F                     C
  Me desculpe a sinceridade, mas estou em outra
                G           C
  E dessa vez você me perdeu

Refrão 2x:
         G               Am
 Amei demais, não fui capaz
          F                     C
 De enxergar o mal que você me fez  
          G             Am
 Mas eu mudei, me valorizei
              F                  C
 E vi que te amar foi uma estupidez

Solo 2: ( C  G  Am  F )

E|--------------------------------------------------------|
B|-------3/5-5--5-5-5-------------------------------------|
G|--5-----------------5-4-4h5---5-5-5-4---------------4-5-|
D|----5---------------------------------5-5/7-----5-7-----|
A|---------------------------------------------7----------|
E|--------------------------------------------------------|

E|--------------------------------------------------------|
B|------------8-8-5---------------------------------------|
G|--5---7/9-7-------7-5--5-5-5-4--------------------------|
D|----5--------------------------5-5/7--------------------|
A|--------------------------------------------------------|
E|--------------------------------------------------------|

Refrão:
         G               Am
 Amei demais, não fui capaz
          F                     C
 De enxergar o mal que você me fez  
          G             Am
 Mas eu mudei, me valorizei
              F                  C
 E vi que te amar foi uma estupidez

Solo: ( F  G  C  F )(2x)
      ( Am  G  C )

E|---------------------------------------------------------------------------|
B|--5-3------------------------5-8-5-----/6-5hp5-----------------------------|
G|------5-------4h5-4----4-5-7-------7-5---------5-5--------4-5--7-5-4--5-5--|
D|--------5/7~---------7-----------------------------5/7--7------------------|
A|---------------------------------------------------------------------------|
E|---------------------------------------------------------------------------|

Clipes

Cifra Club Pro

Aproveite o Cifra Club com benefícios exclusivos e sem anúncios
Cifra Club Pro
Aproveite o Cifra Club com benefícios exclusivos e sem anúncios