busca

Amor Não É Só Love

Henrique e Juliano

Tom: C
[Intro]

    C9
E|-----------------------------------|
B|------1--3--1----------------------|
G|----0---------0--------------------| 
D|-----------------------------------|
A|-3---------------------------------|
E|-----------------------------------|

Parte 2 de 2

    Dm7              F
E|-------------------1---------------|
B|-----1--3--1-------1---------------|
G|---2---------2-----2---------------|  
D|-0-----------------3---------------|
A|-------------------3---------------|
E|-------------------1---------------|

        C9
Faz assim
Quando eu estiver fora de mim
                           Dm7
Só se afasta e me deixa aqui
                           F
No meu canto, calado, pensando
               C9
Que eu faço assim quando você não estiver legal
                    Dm7
De TPM, tão sentimental
                             F
Sem saber se aproximo ou afasto
Dm7                   F
Eu respeito o seu tempo

                    Am
Pra no calor do momento
Não brigar por bobeira
Dm7                        F
Aí é que tem que usar a cabeça
                      Am
E o coração no modo frieza
                  G
Pra não fazer besteira

              Dm7
Amor não é só love, love, love
               F
É preciso ter sorte, sorte, sorte
                  C9
Que a gente se entende
                           G
Tô repetindo pra ficar na mente

              Dm7
Amor não é só love, love, love
               F
É preciso ter sorte, sorte, sorte
                  C9
Que a gente se entende
                           G
Tô repetindo pra ficar na mente

              Dm7
Amor não é só love, love, love, love
F
Love, love, love
              C9
É preciso ter sorte 
              G
É preciso ter sorte

( Dm7  F  C9  G )

Clipes

Cifra Club Pro

Aproveite o Cifra Club com benefícios exclusivos e sem anúncios
Cifra Club Pro
Aproveite o Cifra Club com benefícios exclusivos e sem anúncios