Aquela Pessoa

Henrique e Juliano

Am
123
X02210
Em
12
022000
F9
234
135211
F9/C
1234
X3X563
G/D
1234
X5543X
Tom: G
[Intro] F9/C  G/D  Am

#1t1##1t2#E|-3/5-5-5-5-3-7--8-7--3/5--3p0-------------|
B|------------------------------1-----------|
G|--------------------------------2---------|
D|------------------------------------------|
A|------------------------------------------|
E|------------------------------------------|#/1t2##/1t1#

[Primeira Parte]

 F9                     G/D
Você também tem que eu sei
          Am                  Em
Aquela pessoa, não adianta negar
  F9
Que tem passe livre
        G/D              Am              Em
Carta branca na sua vida    pra ir e voltar
           F9                G/D             Am  G/D
Quando quiser, nunca vai deixar de ser o que é 

[Refrão]

 F9                    G/D            Am
Todo mundo tem uma pessoa, aquela pessoa
                 G/D
Que te faz esquecer todas as outras
 F9                    G/D            Am
Todo mundo tem uma pessoa, aquela pessoa
             G/D                   F9
Não precisa dia e nem hora pra chegar
                                   G/D
Na portaria do meu coração já tem seu nome

Pode entrar

[Solo] F9/C  G/D  Am 

#2t1##2t2#E|-3/5-5-5-5-3-7-7/8-8-7-7------------------|
B|------------------------------------------|
G|------------------------------------------|
D|------------------------------------------|
A|------------------------------------------|
E|------------------------------------------|#/2t2##/2t1#

#3t1##3t2#E|-3/5-5-5--3p0-----------------------------|
B|--------------1----1p0--------------------|
G|----------------2------2p0-2--------------|
D|------------------------------------------|
A|------------------------------------------|
E|------------------------------------------|#/3t2##/3t1#

[Primeira Parte]

 F9                     G/D
Você também tem que eu sei
          Am               Em
Aquela pessoa, não adianta 
  F9
Que tem passe livre
        G/D              Am              Em
Carta branca na sua vida    pra ir e voltar
           F9                G/D             Am  G/D
Quando quiser, nunca vai deixar de ser o que é 

[Refrão]

 F9                    G/D            Am
Todo mundo tem uma pessoa, aquela pessoa
                 G/D
Que te faz esquecer todas as outras
 F9                    G/D            Am
Todo mundo tem uma pessoa, aquela pessoa
             G/D                   F9
Não precisa dia e nem hora pra chegar
                               G/D
Na portaria do meu coração já tem seu nome


 F9                    G/D            Am
Todo mundo tem uma pessoa, aquela pessoa
                 G/D
Que te faz esquecer todas as outras
 F9                    G/D            Am
Todo mundo tem uma pessoa, aquela pessoa
             G/D                   F9
Não precisa dia e nem hora pra chegar
                               G/D
Na portaria do meu coração já tem seu nome

[Final] F9/C  G/D  Am

#4t1##4t2#E|-3/5-5-5-5-3-7--8-7--3/5--3p0-------------|
B|------------------------------1-----------|
G|--------------------------------2---------|
D|------------------------------------------|
A|------------------------------------------|
E|------------------------------------------|#/4t2##/4t1#
Composição: Elcio Di Carvalho / LARI FERREIRA / Thales LessaColaboração e revisão: Thiago AlmeidaErialdo Domingosleandro macielVanessa Colpanie mais 1