busca

De Vez Outra Vez

Henrique e Juliano

Tom: D
Intro: G A Bm

Solo Guitarra:
E|----------------------------------------|
B|----------------------------------------|
G|----8-9-8-9-8-9-8-8/11------------------|
D|-5/7------------------------------------|
A|----------------------------------------|
E|----------------------------------------|

E|----------------------------------------|
B|----------------------------------------|
G|----8-9-8-9-8-9-8-4-6-------------------|
D|-5/7------------------------------------|
A|----------------------------------------|
E|----------------------------------------|

Bm
Olha a gente brigando de novo 
        D
Por conversa fiada do povo
       Em
Outra vez você não me ouviu
       G                   A
E acreditou no que cê nem viu

       G                    A                   Bm
Outra vez a gente com a mesma conversa de sempre 
                        G
Você caiu no papo dessa gente 
             A                    Bm
Que só tá esperando ver algum vacilo meu

       G                 A                    Bm
Outra vez eu me explicando mesmo sendo inocente
                         G
Tô duvidando do que você sente 
             A                      G     A
Por que você tá duvidando do que é só seu

      G                  A               Bm
Terminamos de vez outra vez pela decima vez
Só que eu sei bem aonde isso vai dar

      G                  A
Terminamos de vez outra vez 
                     Bm
E e amor que a gente fez me dá motivos pra acreditar 
          G               A                 Bm
Que você vai voltar tô esperando o meu celular tocar
            G               A               Bm
Eu sei que vai voltar tô esperando o meu celular tocar

Clipes

Cifra Club Pro

Aproveite o Cifra Club com benefícios exclusivos e sem anúncios
Cifra Club Pro
Aproveite o Cifra Club com benefícios exclusivos e sem anúncios