busca

Dois Covardes

Henrique e Juliano

Tom: D
Intro: D A4

Intro Dedihado:
Parte 1 de 4:
   A4    D
E|-----0-2----------------------------------|
B|---3--------------------------------------|
G|-2-------2--------------------------------|
D|------------------------------------------|
A|------------------------------------------|
E|------------------------------------------|

Parte 2 de 4:
   A4    D
E|-----0-2----------------------------------|
B|---3--------------------------------------|
G|-2-------2--------------------------------|
D|------------------------------------------|
A|------------------------------------------|
E|------------------------------------------|

Parte 3 de 4:
   A4
E|-----0---0--------------------------------|
B|---3---3----------------------------------|
G|-2----------------------------------------|
D|------------------------------------------|
A|------------------------------------------|
E|------------------------------------------|

Parte 4 de 4:
   A4
E|-------12----12---------------------------|
B|----15----15------------------------------|
G|-14---------------------------------------|
D|------------------------------------------|
A|------------------------------------------|
E|------------------------------------------|

       Bm
Quando eu te encontro eu me perco
    G
Entro na contra-mão e nem dou seta
         D
Quando você me liga pra se resolver
         A
Meu ego cresce e o meu orgulho desperta

         Em                             Bm
Eu tenho pressa e to até pensando em te evitar
                             G
Motivos eu não tenho pra me afastar
                                   A
Mas sempre que eu te vejo eu fico querendo voltar

                    Bm
Nós somos dois covardes
                                      G
Fingindo que ta bem forçando uma amizade
Mostramos ser o que não somos, dizendo
     D                                   A
Que não existe amor, quem foi que falou,quem falou errou
                            Bm
Então quem de nós dois errou

Solo Final (Violão 2): 
E|------------------------------------------|
B|------------------------------------------|
G|-5/7-7-7-7-6-7-7-7-6h7-4---4~-------------|
D|-------------------------7----------------|
A|------------------------------------------|
E|------------------------------------------|

Clipes

Cifra Club Pro

Aproveite o Cifra Club com benefícios exclusivos e sem anúncios
Cifra Club Pro
Aproveite o Cifra Club com benefícios exclusivos e sem anúncios