Flor e o Beija-flor (part. Marília Mendonça)

Henrique e Juliano

Am
123
X02210
C
123
X32010
Dm
123
XX0231
F
234
133211
G
123
320003
G/B
123
X20033
Tom: G
[Intro] C  G  Dm  F

#1t1#Dedilhado Parte 1 de 3
          C        G
#1t2#E|------------------------------------------|
B|-------1--------3------------3------------|
G|-----0--------0---0--------0---0----------|
D|---2--------0-------0----0-------0--------|
A|-3----------------------------------------|
E|----------3------------3------------------|#/1t2##/1t1#

#2t1#Dedilhado Parte 2 de 3
          Dm
#2t2#E|-------1------------1---------------------|
B|-----3---3--------3---3-------------------|
G|---2-------2----2-------2-----------------|
D|-0------------0---------------------------|
A|------------------------------------------|
E|------------------------------------------|#/2t2##/2t1#

#3t1#Dedilhado Parte 3 de 3
          F
#3t2#E|------------------------------------------|
B|-------1------------1---------------------|
G|-----2---2--------2---2-------------------|
D|---3-------3----3-------3-----------------|
A|------------------------------------------|
E|-1------------1---------------------------|#/3t2##/3t1#

[Intro - Solo (Violão 2)]

#4t1#Parte 1 de 3
#4t2#E|-------0--3-1-0-1-1p0-------------------------------|
B|-1---1----------------1-1/3---3---------------------|
G|---0------------------------0---0-------------------|
D|----------------------------------------------------|
A|----------------------------------------------------|
E|----------------------------------------------------|#/4t2##/4t1#

#5t1#Parte 2 de 3
#5t2#E|----------------------------------------------------|
B|-3--------------------------------------------------|
G|---5-4-5-5p4---------7------------------------------|
D|-------------5-5/7-7--------------------------------|
A|----------------------------------------------------|
E|----------------------------------------------------|#/5t2##/5t1#

#6t1#Parte 3 de 3
#6t2#E|-1-1/3-3-3/5---5--------8-------13------------------|
B|-3-3/5-5-5/6-6---/10-10-----------------------------|
G|--------------------------14------------------------|
D|----------------------------------------------------|
A|----------------------------------------------------|
E|----------------------------------------------------|#/6t2##/6t1#

[Primeira Parte]

#7t1#Parte 1 de 3
          C            G
#7t2#E|------------------------------------------|
B|-------1------------3---------------------|
G|-----0---0--------0---0-------------------|
D|---2-------2----0-------0-----------------|
A|-3----------------------------------------|
E|--------------3---------------------------|#/7t2##/7t1#

#8t1#Parte 2 de 3
          Am                   G/B
#8t2#E|------------------------------------------|
B|-------1------------1--3------------------|
G|-----2---2--------2----0------------------|
D|---2-------2----2------0------------------|
A|-0------------0--------2------------------|
E|------------------------------------------|#/8t2##/8t1#

#9t1#Repete Parte 1 de 3
          C            G
#9t2#E|------------------------------------------|
B|-------1------------3---------------------|
G|-----0---0--------0---0-------------------|
D|---2-------2----0-------0-----------------|
A|-3----------------------------------------|
E|--------------3---------------------------|#/9t2##/9t1#

#10t1#Parte 3 de 3
          Am
#10t2#E|------------------------------------------|
B|-------1------------1---------------------|
G|-----2---2--------2---2-------------------|
D|---2-------2----2-------2-----------------|
A|-0------------0---------------------------|
E|------------------------------------------|#/10t2##/10t1#

C                    G
Essa é uma velha história
                  Am
De uma flor e um beija-flor
               G/B  C
Que conheceram o  amor
      G               Am
Numa noite fria de outono

[Pré-Refrão]

#11t1#Parte 1 de 5
          Dm
#11t2#E|-------1------------1---------------------|
B|-----3---3--------3---3-------------------|
G|---2-------2----2-------2-----------------|
D|-0------------0---------------------------|
A|------------------------------------------|
E|------------------------------------------|#/11t2##/11t1#

#12t1#Parte 2 de 5
          Am
#12t2#E|------------------------------------------|
B|-------1------------1---------------------|
G|-----2---2--------2---2-------------------|
D|---2-------2----2-------2-----------------|
A|-0------------0---------------------------|
E|------------------------------------------|#/12t2##/12t1#

#13t1#Parte 3 de 5
          F
#13t2#E|------------------------------------------|
B|-------1------------1---------------------|
G|-----2---2--------2---2-------------------|
D|---3-------3----3-------3-----------------|
A|------------------------------------------|
E|-1------------1---------------------------|#/13t2##/13t1#

#14t1#Parte 4 de 5
          G
#14t2#E|------------------------------------------|
B|-------3------------3---------------------|
G|-----0---0--------0---0-------------------|
D|---0-------0----0-------0-----------------|
A|------------------------------------------|
E|-3------------3---------------------------|#/14t2##/14t1#

#15t1#Repete Parte 1 de 5
          Dm
#15t2#E|-------1------------1---------------------|
B|-----3---3--------3---3-------------------|
G|---2-------2----2-------2-----------------|
D|-0------------0---------------------------|
A|------------------------------------------|
E|------------------------------------------|#/15t2##/15t1#

#16t1#Repete Parte 3 de 5
          F
#16t2#E|------------------------------------------|
B|-------1------------1---------------------|
G|-----2---2--------2---2-------------------|
D|---3-------3----3-------3-----------------|
A|------------------------------------------|
E|-1------------1---------------------------|#/16t2##/16t1#

#17t1#Repete Parte 1 de 5
          Dm
#17t2#E|-------1------------1---------------------|
B|-----3---3--------3---3-------------------|
G|---2-------2----2-------2-----------------|
D|-0------------0---------------------------|
A|------------------------------------------|
E|------------------------------------------|#/17t2##/17t1#

#18t1#Parte 5 de 5
          G
#18t2#E|--------------3---------------------------|
B|-------3------3---------------------------|
G|-----0---0----0---------------------------|
D|---0-------0------------------------------|
A|------------------------------------------|
E|-3----------------------------------------|#/18t2##/18t1#

                        Dm
E as folhas caídas no chão
                        Am
Da estação que não tem cor
                           F
E a flor conhece o beija-flor
                        G
E ele lhe apresenta o amor

                        Dm
E diz que o frio é uma fase ruim
                               F
Que ela era a flor mais linda do jardim
                    Dm
E a única que suportou
                    G
Merece conhecer o amor e todo seu calor

[Refrão]

#19t1#          C
#19t2#E|-------0------------0---------------------|
B|-----1---1--------1---1-------------------|
G|---0-------0----0-------0-----------------|
D|------------------------------------------|
A|-3------------3---------------------------|
E|------------------------------------------|#/19t2##/19t1#

C                            G
Ai que saudade de um beija-flor
                       Dm
Que me beijou depois voou
             F
Pra longe demais
              C
Pra longe de nós

                      G
Saudade de um beija-flor
                          Dm
Lembranças de um antigo amor
                     F
O dia amanheceu tão lindo
                      C    G  Dm  F
Eu durmo e acordo sorrindo

[Primeira Parte]

C                    G
Essa é uma velha história
                  Am
De uma flor e um beija-flor
               G/B  C
Que conheceram o  amor
      G               Am
Numa noite fria de outono

[Pré-Refrão]

                        Dm
E as folhas caídas no chão
                        Am
Da estação que não tem cor
                           F
E a flor conhece o beija-flor
                        G
E ele lhe apresenta o amor

                        Dm
E diz que o frio é uma fase ruim
                               F
Que ela era a flor mais linda do jardim
                    Dm
E a única que suportou
                    G
Merece conhecer o amor e todo seu calor

[Refrão]

C                            G
Ai que saudade de um beija-flor
                       Dm
Que me beijou depois voou
             F
Pra longe demais
              C
Pra longe de nós

                      G
Saudade de um beija-flor
                          Dm
Lembranças de um antigo amor
                     F
O dia amanheceu tão lindo
                      C    G  Dm
Eu durmo e acordo sorrindo
                     F
O dia amanheceu tão lindo
                      C
Eu durmo e acordo sorrindo

#20t1#[Final]
          C
#20t2#E|-------0------0---------------------------|
B|-----1---1----1---------------------------|
G|---0-------0--0---------------------------|
D|--------------2---------------------------|
A|-3------------3---------------------------|
E|------------------------------------------|#/20t2##/20t1#
Composição: Juliano Tchula / Marília MendonçaColaboração e revisão: Leandro SandimRafael CarboniMarcio Santosweslley carvalhoe mais 10
Videoaula Flor e o Beija-flor (aula de violão completa)