Ligação Covarde

Henrique e Juliano

Am
123
X02210
Am7
12
X02010
C
123
X32010
Em
12
022000
F7M
1234
1X221X
G
123
320003
G/B
123
X20033
Tom: G
[Intro] F7M  C  Am7  G

#1t1##1t2#E|------------------------------------------|
B|-1h3-1h3--5h6-5--1h3-1h3--5h6-5-----------|
G|------------------------------------------|
D|------------------------------------------|
A|------------------------------------------|
E|------------------------------------------|#/1t2##/1t1#

#2t1##2t2#E|------------------------------------------|
B|-1h3-1h3--5h6-5-3~------------------------|
G|------------------------------------------|
D|------------------------------------------|
A|------------------------------------------|
E|------------------------------------------|#/2t2##/2t1#

[Primeira Parte]

       F7M
Cê não acha que ta um pouco tarde
       C
Pra fazer essa ligação covarde
            F7M
Tô sabendo sim
                
Da sua grande novidade
       C
Vai casar! É amanhã né?
                     G/B
Tô feliz de verdade!

[Pré-Refrão]

     Am7                     Em
Mas pera aí, ta ligando pra mim por quê?
      F7M                           C    G/B
Entendi, quer fazer o amor da despedida
Am7                         Em   
Olha, eu não era tão bom assim em português
               F7M           
Mas o ponto final eu usei "direitin"
          G                   
Quando tirei você da minha vida

[Refrão]

                  F7M
A tua sorte é que eu
                            C
Não conheço com quem vai casar
                         Am7
Mas conhecendo bem seu amor
                          G
Tô coçando pra não ir contar
                       F7M
Tudo que você tá me falando
                             C
Pra mostrar quem cê é de verdade
                          Am7
Dessa vez não me falta coragem
                          G
Já passei por cima da saudade

F7M               C
Acho que é bom você desligar
 Am7           G               F7M  C  Am  G
Vai que amanhã eu apareço por lá

#3t1##3t2#E|------------------------------------------|
B|-1h3-1h3--5h6-5--1h3-1h3--5h6-5-----------|
G|------------------------------------------|
D|------------------------------------------|
A|------------------------------------------|
E|------------------------------------------|#/3t2##/3t1#

#4t1##4t2#E|------------------------------------------|
B|-1h3-1h3--5h6-5-3~------------------------|
G|------------------------------------------|
D|------------------------------------------|
A|------------------------------------------|
E|------------------------------------------|#/4t2##/4t1#

[Solo] F7M  C  G/B

#5t1##5t2#E|----------------10b12--8-8----------------|
B|-----------5h8----------------------------|
G|-------5h7--------------------------------|
D|-5-5h7------------------------------------|
A|----------------------------3~-2~-0-------|
E|------------------------------------------|#/5t2##/5t1#

[Pré-Refrão]

     Am7                     Em
Mas pera aí, ta ligando pra mim por quê?
      F7M                           C    G/B
Entendi, quer fazer o amor da despedida
Am7                         Em   
Olha, eu não era tão bom assim em português
               F7M           
Mas o ponto final eu usei "direitin"
          G                   
Quando tirei você da minha vida

[Refrão]

                  F7M
A tua sorte é que eu
                            C
Não conheço com quem vai casar
                         Am7
Mas conhecendo bem seu amor
                          G
Tô coçando pra não ir contar
                       F7M
Tudo que você tá me falando
                             C
Pra mostrar quem cê é de verdade
                          Am7
Dessa vez não me falta coragem
                          G
Já passei por cima da saudade

F7M               C
Acho que é bom você desligar
 Am7           G               F7M  C  Am  G  F7M
Vai que amanhã eu apareço por lá

#6t1##6t2#E|------------------------------------------|
B|-1h3-1h3--5h6-5--1h3-1h3--5h6-5-----------|
G|------------------------------------------|
D|------------------------------------------|
A|------------------------------------------|
E|------------------------------------------|#/6t2##/6t1#

#7t1##7t2#E|------------------------------------------|
B|-1h3-1h3--5h6-5-3~------------------------|
G|------------------------------------------|
D|------------------------------------------|
A|------------------------------------------|
E|------------------------------------------|#/7t2##/7t1#
Composição: Théo Andrade / Michel AlvesColaboração e revisão: Thiago AlmeidaRaffael Uascar