busca

Mais Amor e Menos Drama

Henrique e Juliano

Tom: Ebm (forma dos acordes no tom de Bm) Capotraste na 4ª casa
[Intro] G5  D9

[Solo Intro]

Parte 1

E|-----------6------------------6---------------------|
B|-------7-----9-7----------7-----9-7-----------------|
G|-8-6-8---8-------8--8-6-8---8-------8---------------|
D|----------------------------------------------------|
A|----------------------------------------------------|
E|----------------------------------------------------|

Parte 2

E|---------------------------------6------------------|
B|-------7----------7----------7-----9-7--------------|
G|-8-6-8---8--6-8-6---8--8-6-8---8-------8------------|
D|----------------------------------------------------|
A|----------------------------------------------------|
E|----------------------------------------------------|

[Primeira Parte]

G5
   Faz tão pouco tempo 

Que provei teu beijo

Gostei, mas eu não nego 

Que eu tô com medo
 D9
Vai que acontece como da última vez

Me entrego, te amo, cê foge, sobrei

 G5
Quando eu tento ir devagar

Daí cê vem pra cima

Basta uma mensagem 

E olha você virando a esquina
    D9
Na minha intimidade, você foi entrando

Meus pais já te aprovaram 
                   A9
E a gente tá só ficando

[Pré-refrão]

    G
Mas antes de te entregar meu coração
     A9
Eu preciso saber da sua intenção
      Bm
Se é só fogo de palha

Qualquer boca apaga

Se for por aí, a gente para

G
Antes de te entregar meu coração
     A9
Eu preciso saber da sua intenção
      Bm
Se é só fogo de palha

Qualquer boca apaga

Se for por aí, a gente para

[Refrão]

 G
Para na minha cama até dizer que me ama
 A9
Mais amor e menos drama

 Bm
Para na minha cama até dizer que me ama
                        G  A9  Bm
Mais amor e menos drama

[Primeira Parte]

   G
E quando eu tento ir devagar

Daí cê vem pra cima

Basta uma mensagem 

E olha você virando a esquina
    D9
Na minha intimidade, você foi entrando

Meus pais já te aprovaram 
                   A9
E a gente tá só ficando

[Pré-refrão]

    G
Mas antes de te entregar meu coração
     A9
Eu preciso saber da sua intenção
      Bm
Se é só fogo de palha

Qualquer boca apaga

Se for por aí, a gente para

G
Antes de te entregar meu coração
     A9
Eu preciso saber da sua intenção
      Bm
Se é só fogo de palha

Qualquer boca apaga

Se for por aí, a gente para

[Refrão]

 G
Para na minha cama até dizer que me ama
 A9
Mais amor e menos drama
 Bm
Para na minha cama até dizer que me ama
                      G  A9
Mais amor e menos drama

[Pré-refrão Final]

    G
Mas antes de te entregar meu coração
     A9
Eu preciso saber da sua intenção
      Bm
Se é só fogo de palha

Qualquer boca apaga

Se for por aí, a gente para

[Refrão]

 G
Para na minha cama até dizer que me ama
 A9
Mais amor e menos drama
 Bm
Para na minha cama até dizer que me ama
                        G  A9
Mais amor e menos drama
                    Bm
Mais amor e menos drama

Clipes

Cifra Club Pro

Aproveite o Cifra Club com benefícios exclusivos e sem anúncios
Cifra Club Pro
Aproveite o Cifra Club com benefícios exclusivos e sem anúncios