busca

Me Enrosquei de Novo (Papel de Bobo)

Henrique e Juliano

Tom: C
[Intro] Am  F  G

[solo]

E|----------------------------------------------------------------|
B|-6/8--8\6--5------------------6/8--8\6--5--------5-5------------|
G|-7/9--9\7--5------------------7/9--9\7--5--------5-5--5p4-------|
D|-------------------7-7--7-7-----------------5/7------------7-5~-|
A|---------------5/7----------------------------------------------|
E|----------------------------------------------------------------|

  Am
Pra falar de nós dois posso escrever um livro
 F
Nossa história é longa de planos impossíveis
G                                     Am   G
E cada dia é mais difícil a gente conviver


E|------------------------|
B|----------3-------------|
G|---2-4-5-----4--4h5p4-2-|
D|-2----------------------|
A|------------------------|
E|------------------------|

Am
A nossa história é complicada de se resumir
 F
Você me esnoba toda hora e não tá nem aí
 C                                    G
Pareço algo descartável preso em sua vida

E|---------------------------------|
B|---8/10-10-10--12p10-8--5h6-5-6\-|
G|-7-------------------------------|
D|---------------------------------|
A|---------------------------------|
E|---------------------------------|

 Dm
Mas sempre que você me chama eu fico nesse fogo
 Am                                      F
Fico refém do seu beijo e desse amor gostoso
               E
E te quero de novo

[Refrão]

C
E desse jeito eu me enrosquei de novo
 G
Meu coração só faz papel de bobo
Dm
E eu não sei por quanto tempo eu vou vivendo assim
 F               G
Seus planos impossíveis não servem pra mim

C
E desse jeito eu me enrosquei de novo
 G
Meu coração só faz papel de bobo
Dm
E eu não sei por quanto tempo eu vou vivendo assim
 F               G                      Am  F  G
Seus planos impossíveis não servem pra mim

[solo]

E|----------------------------------------------------------------|
B|-6/8--8\6--5------------------6/8--8\6--5--------5-5------------|
G|-7/9--9\7--5------------------7/9--9\7--5--------5-5--5p4-------|
D|-------------------7-7--7-7-----------------5/7------------7-5~-|
A|---------------5/7----------------------------------------------|
E|----------------------------------------------------------------|

E|---8/10-8-7-5-|
B|-8------------|
G|--------------|
D|--------------|
A|--------------|
E|--------------|

 Dm
Mas sempre que você me chama eu fico nesse fogo
 Am                                      F
Fico refém do seu beijo e desse amor gostoso
              E
E te quero de novo

[refrão]

C
E desse jeito eu me enrosquei de novo
 G
Meu coração só faz papel de bobo
Dm
E eu não sei por quanto tempo eu vou vivendo assim
 F               G
Seus planos impossíveis não servem pra mim

C
E desse jeito eu me enrosquei de novo
 G
Meu coração só faz papel de bobo
Dm
E eu não sei por quanto tempo eu vou vivendo assim
 F               G                      Am  F  G
Seus planos impossíveis não servem pra mim

[final]

E|--------------------------------|
B|-6/8--8\6--5--------------------|
G|-7/9--9\7--5--------------5/7-7-|
D|-------------------7-7--7-------|
A|---------------5/7--------------|
E|--------------------------------|

               Am
Não servem pra mim

Clipes

Cifra Club Pro

Aproveite o Cifra Club com benefícios exclusivos e sem anúncios
Cifra Club Pro
Aproveite o Cifra Club com benefícios exclusivos e sem anúncios