Na Hora da Raiva

Henrique e Juliano

C
123
X32010
D/F#
1234
2X0232
D9
12
XX0230
Em
12
022000
G
123
320003
Tom: G
Intro:

#1t1#     G
#1t2#E|------------------------------------------|
B|-------3--------------3-------------------|
G|-----0-----2p0------0-----2p0-------------|
D|---0-----0--------0-----0-----------------|
A|------------------------------------------|
E|-3--------------3-------------------------|#/1t2##/1t1#

Primeira Parte - Primeira Estrofe:

       G                           D/F#
Encontrei uma caixinha cheia de relatos
                            Em
Um monte de documentos tão falsos
        C
Nossas vidas

Primeira Parte – Primeira Estrofe:

Parte 1

#2t1#     G
#2t2#E|------------------------------------------|
B|-------3--------------3-------------------|
G|-----0-----2p0------0-----2p0-------------|
D|---0-----0--------0-----0-----------------|
A|------------------------------------------|
E|-3--------------3-------------------------|#/2t2##/2t1#

Parte 2

#3t1#     D/F#
#3t2#E|------------------------------------------|
B|-----------3--------------3---------------|
G|-----2-2-----2------2-2-----2-------------|
D|---0---0-0--------0---0-0-----------------|
A|------------------------------------------|
E|-2--------------2-------------------------|#/3t2##/3t1#

Parte 3

#4t1#     Em
#4t2#E|------------------------------------------|
B|------------------------------------------|
G|-------0---2p0--------0---2p0-------------|
D|-----2--------------2---------------------|
A|---2--------------2-----------------------|
E|-0-------0------0-------0-----------------|#/4t2##/4t1#

Parte 4

#5t1#     C
#5t2#E|------------------------------------------|
B|-------1---1p0----------------------------|
G|---0---0-------2-0-------0----------------|
D|------------------------------------------|
A|-3---3---3---------3-5/7------------------|
E|------------------------------------------|#/5t2##/5t1#

Primeira Parte - Segunda estrofe:

           G
Em minhas mãos agora
                              D9
Tá cada parte dessa nossa história
                                  Em
E eu não sei se eu rasgo ou jogo fora
                        C
E o que é que eu faço agora

Refrão:

     G                        D9
Cometi a loucura de nossas fotos rasgar
                                Em
E uma por uma eu vou ter que colar
                    C
Mas foi na hora da raiva
                     G
Na hora, na hora da raiva


Naquele segundo eu pensei que até 
   D9
Te odiava
                                Em
Mas respirei fundo e vi que eu te amava
                    C
Mas foi na hora da raiva

Na hora, na hora da raiva

Base Solo:

G  D9  Em  C

Solo:

Parte 1

#6t1##6t2#E|----------------------------------------------------|
B|---------------------------8-8-8~-8-8h10------------|
G|-----5-5-7/9-7-9-7h9~--7/9---------------9\7-7-7h9~-|
D|-5/7------------------------------------------------|
A|----------------------------------------------------|
E|----------------------------------------------------|#/6t2##/6t1#

Parte 2

#7t1##7t2#E|----------------------------------------------------|
B|-----8-8h10-12-13r12-10~----------------------------|
G|-7/9---------------------12p9-10~-------------------|
D|----------------------------------------------------|
A|----------------------------------------------------|
E|----------------------------------------------------|#/7t2##/7t1#

Parte 3

#8t1##8t2#E|----------------------------------15b17~------------|
B|----------12h13-15b17-15b17r15-13-------------------|
G|-------14-------------------------------------------|
D|-12/14----------------------------------------------|
A|----------------------------------------------------|
E|----------------------------------------------------|#/8t2##/8t1#

Parte 4

#9t1##9t2#E|----------------------------------------------------|
B|-15b17-b17-b17-15b17r15p13-13~----------------------|
G|----------------------------------------------------|
D|----------------------------------------------------|
A|----------------------------------------------------|
E|----------------------------------------------------|#/9t2##/9t1#

Primeira Parte – Segunda Estrofe:

           G
Em minhas mãos agora
                              D9
Tá cada parte dessa nossa história
                                  Em
E eu não sei se eu rasgo ou jogo fora
                        C
E o que é que eu faço agora

Refrão:

     G                        D9
Cometi a loucura de nossas fotos rasgar
                                Em
E uma por uma eu vou ter que colar
                    C
Mas foi na hora da raiva
                     G
Na hora, na hora da raiva


Naquele segundo eu pensei que até 
   D9
Te odiava
                                Em
Mas respirei fundo e vi que eu te amava
                    C
Mas foi na hora da raiva

Na hora, na hora da raiva

Final:

G  D9  Em
                    C
Mas foi na hora da raiva
                     G
Na hora, na hora da raiva


Naquele segundo eu pensei que até 
   D/F#
Te odiava
                                Em
Mas respirei fundo e vi que eu te amava
                    C
Mas foi na hora da raiva
                     G
Na hora, na hora da raiva

Dedlhado Final:

Parte 1

#10t1#     G
#10t2#E|------------------------------------------|
B|-------3--------------3-------------------|
G|-----0-----2p0------0-----2p0-------------|
D|---0-----0--------0-----0-----------------|
A|------------------------------------------|
E|-3--------------3-------------------------|#/10t2##/10t1#

Parte 2

#11t1#     D/F#
#11t2#E|------------------------------------------|
B|-----------3--------------3---------------|
G|-----2-2-----2------2-2-----2-------------|
D|---0---0-0--------0---0-0-----------------|
A|------------------------------------------|
E|-2--------------2-------------------------|#/11t2##/11t1#

Parte 3

#12t1#     Em
#12t2#E|------------------------------------------|
B|------------------------------------------|
G|-------0---2p0--------0---2p0-------------|
D|-----2--------------2---------------------|
A|---2--------------2-----------------------|
E|-0-------0------0-------0-----------------|#/12t2##/12t1#

Parte 4

#13t1#     C       G
#13t2#E|-3-3-3---3--------------------------------|
B|-1-1-1---3--------------------------------|
G|-0-0-0---0--------------------------------|
D|-2-2-2---0--------------------------------|
A|-3-3-3---2--------------------------------|
E|---------3--------------------------------|#/13t2##/13t1#

Solo Final:

Parte 1

#14t1##14t2#E|----------------------------------------------------|
B|-13--13-13--13-13-13-12-12-12-13--13-13-15----------|
G|-12--12-12--12-12-12-12-12-12-12--12-12-12----------|
D|----------------------------------------------------|
A|----------------------------------------------------|
E|----------------------------------------------------|#/14t2##/14t1#

Parte 2

#15t1##15t2#E|----------------------------------------------------|
B|-15--15-15--15-15-15-13-13-13-15--15-15/17-17-------|
G|-12--12-12--12-12-12-12-12-12-12--12-12/14-14-------|
D|----------------------------------------------------|
A|----------------------------------------------------|
E|----------------------------------------------------|#/15t2##/15t1#

Parte 3

#16t1##16t2#E|-----------------------------------15b17------------|
B|----------12h13-15b17-17r15-13-13~------------------|
G|-------14-------------------------------------------|
D|-12/14----------------------------------------------|
A|----------------------------------------------------|
E|----------------------------------------------------|#/16t2##/16t1#
Composição: Cinara Sousa / Gustavo Moura / Matheus Costa / Rafael MouraColaboração e revisão: Leandro SandimDj PGmilton garciaDarlan Nascimentoe mais 5
Videoaula Na Hora da Raiva (aula de violão completa)