busca

Relaxa o Coração

Henrique e Juliano

Tom: A
[Intro] E  D  A  E 

E|------------------------------------------|
B|-3/5---5---5---5-5/7--7p5-----------------|
G|-----6---6---6------------6---------------|
D|------------------------------------------|
A|------------------------------------------|
E|------------------------------------------|

E|------------------------------------------|
B|-5-5/7-5-5-----5-5--------2/3-2-----------|
G|-----------6-6-----6-2/4--------4-2-2/4---|
D|------------------------------------------|
A|------------------------------------------|
E|------------------------------------------|

[Primeira Parte]

 Bm7   D
Para e olha
           A                           E
Cada mesa tem um chifre pra contar história
   Bm7                             D
Aquele batendo na mesa de camisa preta
                           A
Virando no bico aquela cerveja
              E                          
Acabou de ganhar um enfeite pra sua cabeça
Bm7             
    E a mesa do lado
     D          A
Parabéns pra você
                      E                     D
Eu vou fazer uma pergunta pra galera responder
      E
Quer ver

[Refrão]


                       D
Só quem já foi traído aí ergue a mão
    A                    E
Tá vendo você não é exceção

Relaxa o coração!

                       D 
Só quem já foi traído aí ergue a mão
    A                    E
Tá vendo você não é exceção

Relaxa o coração!

[Solo] D  A  E
       D  A  E

E|------------------------------------------|
B|-3/5---5---5---5-5/7--7p5-----------------|
G|-----6---6---6------------6---------------|
D|------------------------------------------|
A|------------------------------------------|
E|------------------------------------------|

E|------------------------------------------|
B|-3/5---5---5---5-5/7--7p5-----------------|
G|-----6---6---6------------6---------------|
D|------------------------------------------|
A|------------------------------------------|
E|------------------------------------------|

E|------------------------------------------|
B|-5-5/7-5-5-----5-5--------2/3-2-----------|
G|-----------6-6-----6-2/4--------4-2-2/4---|
D|------------------------------------------|
A|------------------------------------------|
E|------------------------------------------|

[Primeira Parte]

 Bm7   D
Para e olha
           A                           E
Cada mesa tem um chifre pra contar história
   Bm7                             D
Aquele batendo na mesa de camisa preta
                           A
Virando no bico aquela cerveja
              E                          
Acabou de ganhar um enfeite pra sua cabeça
Bm7             
    E a mesa do lado
     D          A
Parabéns pra você
                      E                     D
Eu vou fazer uma pergunta pra galera responder
      E
Quer ver

[Refrão]


                       D
Só quem já foi traído aí ergue a mão
    A                    E
Tá vendo você não é exceção

Relaxa o coração!

                       D 
Só quem já foi traído aí ergue a mão
    A                    E
Tá vendo você não é exceção

Relaxa o coração!

[Solo] D  A  E

E|------------------------------------------|
B|-3/5---5---5---5-5/7--7p5-----------------|
G|-----6---6---6------------6---------------|
D|------------------------------------------|
A|------------------------------------------|
E|------------------------------------------|

E|------------------------------------------|
B|-5-5/7-5-5-----5-5------------------------|
G|-----------6-6-----6-2/4------------------|
D|------------------------------------------|
A|------------------------------------------|
E|------------------------------------------|

[Refrão]


                       D
Só quem já foi traído aí ergue a mão
    A                    E
Tá vendo você não é exceção

Relaxa o coração!

                       D 
Só quem já foi traído aí ergue a mão
    A                    E
Tá vendo você não é exceção

Relaxa o coração!

[Final] D  A  E

E|------------------------------------------|
B|-3/5---5---5---5-5/7--7p5-----------------|
G|-----6---6---6------------6---------------|
D|------------------------------------------|
A|------------------------------------------|
E|------------------------------------------|

E|------------------------------------------|
B|-5-5/7-5-5-----5-5------------------------|
G|-----------6-6-----6-2/4------------------|
D|------------------------------------------|
A|------------------------------------------|
E|------------------------------------------|

Clipes

Cifra Club Pro

Aproveite o Cifra Club com benefícios exclusivos e sem anúncios
Cifra Club Pro
Aproveite o Cifra Club com benefícios exclusivos e sem anúncios