busca

Sem Rede

Henrique e Juliano

Tom: Ab (forma dos acordes no tom de G) Capotraste na 1ª casa
[Intro] C  G

(com capo)

E|---------------------------------|
B|-3-3h5-5-5-3-3-1-1-0-0-----------|
G|-4-4h5-5-5-4-4-2-2-0-0-2-2-0-0---|
D|-----------------------4-4-0-0---|
A|---------------------------------|
E|---------------------------------|

[Primeira Parte]

  C
Agora não chega mais 
                 G
Nenhuma notificação sua

Te bloqueei!
   C
Então virtualmente 

Eu não te amo mais
G
  Mas só uma pergunta

[Pré-Refrão]

                C
Onde é que bloqueia a saudade
              G
Que eu tô sentindo da gente?
                C
Ah, como eu queria 

Que o meu coração
                G
Fosse um celular sem rede

[Refrão]

               C
Pra não dar sinal de você
             Em            D
Pra eu me tocar e te esquecer
             C
Pra essa saudade dar trégua
                       G
E parar de fazer eu beber

               C
Pra não dar sinal de você
             Em            D
Pra eu me tocar e te esquecer
             C
Pra essa saudade dar trégua
          
E eu te olhar sem querer 
 G
  Te querer

( C  G )

(com capo)

E|---------------------------------|
B|-3-3h5-5-5-3-3-1-1-0-0-----------|
G|-4-4h5-5-5-4-4-2-2-0-0-2-2-0-0---|
D|-----------------------4-4-0-0---|
A|---------------------------------|
E|---------------------------------|

[Pré-Refrão]

                C
Onde é que bloqueia a saudade
              G
Que eu tô sentindo da gente?
                C
Ah, como eu queria que o meu coração
                G
Fosse um celular sem rede

[Refrão]

               C
Pra não dar sinal de você
             Em            D
Pra eu me tocar e te esquecer
             C
Pra essa saudade dar trégua
                       G
E parar de fazer eu beber

               C
Pra não dar sinal de você
             Em            D
Pra eu me tocar e te esquecer
             C
Pra essa saudade dar trégua
          
E eu te olhar sem querer 
  G
   Te querer

[Solo] C  Em  D

(sem capo)

E|------------------------------------------|
B|---------4/6~--4--------------4/6~--------|
G|-----3-5------------------3-5-------------|
D|-3-6--------------6~--3-6-----------------|
A|------------------------------------------|
E|------------------------------------------|

E|------------------------------------------|
B|-8b9r8b9r8-6-4-6--------------------------|
G|------------------------------------------|
D|------------------------------------------|
A|------------------------------------------|
E|------------------------------------------|

[Refrão]

             C
Pra essa saudade dar trégua
                       G  D  G
E parar de fazer eu beber

               C
Pra não dar sinal de você
             Em            D
Pra eu me tocar e te esquecer
             C
Pra essa saudade dar trégua
          
E eu te olhar sem querer 
  G
   Te querer

  C
Agora não chega mais 
                 G
Nenhuma notificação sua

Clipes

Cifra Club Pro

Aproveite o Cifra Club com benefícios exclusivos e sem anúncios
Cifra Club Pro
Aproveite o Cifra Club com benefícios exclusivos e sem anúncios