busca

Tinta de Amor

Henrique e Juliano

Tom: B
Solo Intro:
E|----2/7--7-7-7--6--2-2/4--4-----2/7--7-7-7--6-4-2--2------11~----]
B|----4/9--9-9-9--7--4-4/5-5------4/9--9-9-9--7-5-4-4--4/12-12~----]
G|-----------------------------------------------------------------]
D|-----------------------------------------------------------------]
A|------------------------------------------------2----------------]
E|---------------------0-------------------------------------------]

                 E
Olhando longe pra ontem
                    B
Gosto demais do que vejo
                          F#
Nós dois varando a noite se amando 
      E                      B
E agora não dá pra esquecer do beijo 

                E
Apesar do pouco tempo
                 B
Causou um estrago bom
 
Mas o que estraga
       F#
Tem que consertar
  E                    B
Se ela não vier, eu vou buscar
 
Mas o que estraga 
       F#
Tem que consertar 
  E (pausa)                B
Se ela não vier eu vou buscar

 B
Depois que se conhece, não esquece
                       *Riff
Depois que se encontra, não perde
 E
Depois que se abraça, não larga 

Tinta de amor quando mancha
          B
Não apaga não

Riff:
E|-----------]
B|--4-4-5-9~-]
G|-----------]
D|-----------]
A|--2-2-4-7~-]
E|-----------]

Clipes

Cifra Club Pro

Aproveite o Cifra Club com benefícios exclusivos e sem anúncios
Cifra Club Pro
Aproveite o Cifra Club com benefícios exclusivos e sem anúncios