busca

Vidinha de Balada

Henrique e Juliano

Tom: D
[Dedilhado Primeira Parte]

Parte 1 de 2 (2x)

   D9
E|---------0----------------0---------------|
B|-----3-------3--------3-------3-----------|
G|---2---2---2---2----2---2---2---2---------|
D|-0----------------0-----------------------|
A|------------------------------------------|
E|------------------------------------------|

Parte 2 de 2

   Em7(9)           G
E|------------------------------------------|
B|---------3--------3-----------------------|
G|-----0------------0-----------------------|
D|---4---4---4------0-----------------------|
A|------------------2-----------------------|
E|-0------------0-2-3--12\0-----------------|

[Primeira Parte]

D9
   Oi, tudo bem

Que bom te ver
           Em7(9)
A gente ficou, coração gostou
                  G
Não deu pra esquecer

              D9
Desculpa a visita

Eu só vim te falar
               Em7(9)
Tô a fim de você
                                  G
E se não tiver, cê vai ter que ficar

[Pré-Refrão]

Em         G
Eu vim acabar com essa 
 D9               A9
Sua vidinha de balada
Em           G
E dar outro gosto pra essa 
 D9             A9
Sua boca de ressaca

[Refrão]

                     D9
Vai namorar comigo, sim
         A9                      Em
Vai por mim, igual nós dois não tem
         G                    D9
Se reclamar, cê vai casar também
                     A9
Com comunhão de bens
                  Em
Seu coração é meu 
                     G
E o meu é seu também

                     D9
Vai namorar comigo, sim
         A9                      Em
Vai por mim, igual nós dois não tem
         G                    D9
Se reclamar, cê vai casar também
                     A9
Com comunhão de bens
                  Em
Seu coração é meu 
                     G
E o meu é seu também
                     D9  A9  Em  G
Vai namorar comigo, sim

( D9  A9  Em  G )

[Pré-Refrão]

Em         G
Eu vim acabar com essa 
 D9               A9
Sua vidinha de balada
Em           G
E dar outro gosto pra essa 
 D9             A9
Sua boca de ressaca

[Refrão]

                     D9
Vai namorar comigo, sim
         A9                      Em
Vai por mim, igual nós dois não tem
         G                    D9
Se reclamar, cê vai casar também
                     A9
Com comunhão de bens
                  Em
Seu coração é meu 
                     G
E o meu é seu também

                     D9
Vai namorar comigo, sim
         A9                      Em
Vai por mim, igual nós dois não tem
         G                    D9
Se reclamar, cê vai casar também
                     A9
Com comunhão de bens
                  Em
Seu coração é meu 
                     G
E o meu é seu também
                     D9  A9  Em  G
Vai namorar comigo, sim

                     D9
Vai namorar comigo, sim
         A9                      Em
Vai por mim, igual nós dois não tem
         G                    D9
Se reclamar, cê vai casar também
                     A9
Com comunhão de bens
                  Em
Seu coração é meu 
                     G
E o meu é seu também

                     D9
Vai namorar comigo, sim
         A9                      Em
Vai por mim, igual nós dois não tem
         G                    D9
Se reclamar, cê vai casar também
                     A9
Com comunhão de bens
                  Em
Seu coração é meu 
                     G
E o meu é seu também

                     D9
Vai namorar comigo, sim

[Final]

   D9
E|---------0----------------0---------------|
B|-----3-------3--------3-------3-----------|
G|---2---2---2---2----2---2---2---2---------|
D|-0----------------0---------------0-------|
A|------------------------------------------|
E|------------------------------------------|

Clipes

Cifra Club Pro

Aproveite o Cifra Club com benefícios exclusivos e sem anúncios
Cifra Club Pro
Aproveite o Cifra Club com benefícios exclusivos e sem anúncios