Oceans (Where Feet May Fail)

Hillsong United

A
123
X02220
A/C#
1234
X4X255
Bm
234
X24432
Bm7
34
X24232
D
123
XX0232
Em
12
022000
G
123
320003
Tom: G
[Intro] Bm7  A/C#  D  A  G  A 

[Tab - Violão Solo Intro]

(com capo na 3ª casa)

Parte 1 De 4

#1t1##1t2#E|-----4-------4-------4-------6-------7----|
B|---0-------0-------0-------0-------0------|
G|------------------------------------------|
D|------------------------------------------|
A|------------------------------------------|
E|-4-----4-4-----4-4-----4-6-----6-7--------|#/1t2##/1t1#

Parte 2 De 4

#2t1##2t2#E|-------7-------7-------7-------2----------|
B|-----0-------0-------0-------0------------|
G|------------------------------------------|
D|------------------------------------------|
A|------------------------------------------|
E|-7-7----7-7------7-7-----7-2--------------|#/2t2##/2t1#

Parte 3 De 4

#3t1##3t2#E|-------2-------2-------2-------0----------|
B|-----0-------0-------0-------0------------|
G|------------------------------------------|
D|------------------------------------------|
A|------------------------------------------|
E|-2-2-----2-2-----2-2-----2-0--------------|#/3t2##/3t1#

Parte 4 De 4

#4t1##4t2#E|-------0-------0-------2------------------|
B|-----0-------0-------0--------------------|
G|------------------------------------------|
D|------------------------------------------|
A|------------------------------------------|
E|-0-0-----0-0-----0-2-----2----------------|#/4t2##/4t1#

Parte 4 de 4 - Variação

#5t1##5t2#E|-------0-------0-------0------------------|
B|-----0-------0-------0--------------------|
G|------------------------------------------|
D|------------------------------------------|
A|------------------------------------------|
E|-0-0-----0-0-----0-0-----0----------------|#/5t2##/5t1#

   
[Primeira Parte]

Bm7                   A/C#    D
    You call me out upon the waters
          A                   G
The great unknown where feet may fail
Bm7                      A/C#    D
    And there I find You in the mystery
      A
In oceans deep
          G
My faith will stand

[Refrão]

[Tab - Refrão]

Parte 1 de 2 - 3x

#6t1##6t2#E|----0-------0-------7-------7-------------|
B|--0-------0-------0-------0---------------|
G|------------------------------------------|
D|------------------------------------------|
A|------------------------------------------|
E|-0----0-0-----0-7-----7-7-----7-----------|#/6t2##/6t1#

#7t1##7t2#E|-----2-------2-------2-------2------------|
B|---0-------0-------0-------0--------------|
G|------------------------------------------|
D|------------------------------------------|
A|------------------------------------------|
E|-2-----2-2-----2-2-----2-2-----2----------|#/7t2##/7t1#

Parte 2 De 2

#8t1##8t2#E|-----0-------0-------0-------2------------|
B|---0-------0-------0-------0--------------|
G|------------------------------------------|
D|------------------------------------------|
A|------------------------------------------|
E|-0-----0-0-----0-0-----0-2-----2----------|#/8t2##/8t1#

G            D         A        
  So I will call upon Your name
G             D            A
  And keep my eyes above the waves
             G
When oceans rise
              D               A
My soul will rest in your embrace
          G         A  Bm  
For I am Yours and You are mine

( A/C# D  A  G )

[Segunda Parte]

Bm                        A/C#    D
   Your grace abounds in deepest waters
        A
Your sovereign hand
         G
Will be my guide
Bm                          A/C#    D
   Where feet may fail and fear surrounds me
          A                         G
You've never failed and you won't start now

[Refrão]

G            D         A        
  So I will call upon Your name
G             D            A
  And keep my eyes above the waves
             G
When oceans rise
              D               A
My soul will rest in your embrace
          G         A  Bm       A/C# D  A  G 
For I am Yours and You are mine

( Bm  A/C#  D  A  G )

[Ponte]

Bm                           G
   Spirit lead me where my trust 

Is without borders
        D
Let me walk upon the waters
    A
Wherever You would call me
Bm                         G
   Take me deeper than my feet 

Could ever wander
        D
And my faith will be made stronger
         A
In the presence of my Saviour

G                              D
  Spirit lead me where my trust 

Is without borders
        A
Let me walk upon the waters
    Em
Wherever You would call me
G                         D
  Take me deeper than my feet 

Could ever wander
         A
And my faith will be made stronger
         Em
In the presence of my Saviour 
Bm                  A/C#     D
   Spirit lead me where my trust 

Is without borders
        A
Let me walk upon the waters
    Em
Wherever You would call me
Bm                  A      D
   Take me deeper than my feet 

Could ever wander
         A
And my faith will be made stronger
         Em
In the presence of my Saviour 

( Bm  A  D  A  Em )
( Bm  A  D  A  Em )
  
[Refrão]

G            D         A        
  So I will call upon Your name
G             D            A
  And keep my eyes above the waves
             G
When oceans rise
              D           A
My soul will rest in your embrace
          G         A  Bm      
For I am Yours and You are mine

[Final] A/C#  D  A  G  Bm
Composição: Joel Houston / Matt Crocker / Salomon LigthelmColaboração e revisão: Lucas Kappaunnathalia florianoJames AraujoMarcos Júniore mais 14