Take It All

Hillsong United

Am
123
X02210
Bm
234
X24432
C
123
X32010
C9
34
X35533
D
123
XX0232
D9
12
XX0230
Em
12
022000
G
123
320003
Tom: G
Obs: capotraste apenas no violão e 
na guitarra base


Riff da introdução:

(guitarra)


E|------------------------------
B|------------14-------12-------
G|---------11-------11-------11-
D|-------9--------9--------9----
A|14\x--------------------------
E|14\x--------------------------

E|------9//11-| 
B|11----------| 
G|------------| 
D|----9-------| 
A|------------| 
E|------------| 



E|------------------------------
B|------------14-------12----11-
G|---------11-------11----------
D|-------9--------9--------9----
A|14\x--------------------------
E|14\x--------------------------

E|---------| 
B|---11b/7-| 
G|11-------| 
D|---------| 
A|---------| 
E|---------| 


(baixo)


G|-----------------------------| 
D|-----------------------------| 
A|-------------------------6-6-| 
E|-7-7-7--7-7-7--7-7-7-6-6-----| 


(violão) G G G F#m Bm



(verso 1)


(guitarra)


E|------------------------------
B|------------14-------12-------
G|---------11-------11-------11-
D|-------9--------9--------9----
A|14\x--------------------------
E|14\x--------------------------

E|------9//11-| 
B|11----------| 
G|------------| 
D|----9-------| 
A|------------| 
E|------------| 



E|------------------------------
B|------------14-------12----11-
G|---------11-------11----------
D|-------9--------9--------9----
A|14\x--------------------------
E|14\x--------------------------

E|---------| 
B|---11b/7-| 
G|11-------| 
D|---------| 
A|---------| 
E|---------| 


(baixo)


G|-----------------------------| 
D|-----------------------------| 
A|-------------------------6-6-| 
E|-7-7-7--7-7-7--7-7-7-6-6-----| 


 G
Searching the world
The lost will be found
In freedom we live
As one we cry out
You carried the cross
You died and rose again
My God
I'll only ever give my all


(guitarra)


E|------------------------------
B|------------14-------12-------
G|---------11-------11-------11-
D|-------9--------9--------9----
A|14\x--------------------------
E|14\x--------------------------

E|------9//11-| 
B|11----------| 
G|------------| 
D|----9-------| 
A|------------| 
E|------------| 



E|------------------------------
B|------------14-------12----11-
G|---------11-------11----------
D|-------9--------9--------9----
A|14\x--------------------------
E|14\x--------------------------

E|---------| 
B|---11b/7-| 
G|11-------| 
D|---------| 
A|---------| 
E|---------| 


(baixo)


G|-----------------------------| 
D|-----------------------------| 
A|-------------------------6-6-| 
E|-7-7-7--7-7-7--7-7-7-6-6-----| 


(violão) G G G F#m Bm

G You sent Your Son From heaven to earth You delivered us all It's eternally heard I searched for truth And all I found was You My God I"ll only ever give my all (refrão) G D Jesus we're living for Your Name Em C9 We'll never be ashamed of You G D9 Our praise and all we are today Am Take take take it all C9 Take take take it all (repeat) (introdução) (guitarra) E|------------------------------ B|------------14-------12------- G|---------11-------11-------11- D|-------9--------9--------9---- A|14\x-------------------------- E|14\x-------------------------- E|------9//11-| B|11----------| G|------------| D|----9-------| A|------------| E|------------| E|------------------------------ B|------------14-------12----11- G|---------11-------11---------- D|-------9--------9--------9---- A|14\x-------------------------- E|14\x-------------------------- E|---------| B|---11b/7-| G|11-------| D|---------| A|---------| E|---------| (baixo) G|-----------------------------| D|-----------------------------| A|-------------------------6-6-| E|-7-7-7--7-7-7--7-7-7-6-6-----| (violão) G G G F#m Bm G You sent Your Son From heaven to earth You delivered us all It's eternally heard I searched for truth And all I found was You My God I"ll only ever give my all (refrão) G D Jesus we're living for Your Name Em C9 We'll never be ashamed of You G D9 Our praise and all we are today Am Take take take it all C9 Take take take it all (repeat) Riff ponte: G Am Bm C E|12-12-12-12-14-14-14-14-16-16- B|x--x--x--x--x--x--x--x--x--x-- G|9--9--9--9--11-11-11-13-13-13- D|------------------------------ A|------------------------------ E|------------------------------ E|16-16-17-17-17-17-| B|x--x--x--x--x--x--| G|13-14-14-14-14-14-| D|------------------| A|------------------| E|------------------| (ponte) Am Em Running to the One D C9 Who heals the blind Am Em D Following the shining light Am In Your hands Em D C9 The power to save the world G And my life (2x) (introdução pra entrar no refrão só o baixo) G|-----------------------------| D|-----------------------------| A|-------------------------6-6-| E|-7-7-7--7-7-7--7-7-7-6-6-----| (refrão) G D Jesus we're living for Your Name Em C9 We'll never be ashamed of You G D9 Our praise and all we are today Am Take take take it all C9 Take take take it all (repeat) Am Take, take, take it all. C9 Take, take, take it all. D Take, take, take it all.
Composição: Matt Crocker / Scott LigertwoodColaboração e revisão: Gabriel MendesEuripedes Moraesjovaldino juniorESTEVAO GUITARRISTA