busca

190 - Amados Não Temamos

Hinos Avulsos CCB

Tom: B
E|------4--4--4--2--0--0-----0--2--0------0-------|
B|------------------------4------------2----------|
G|---4----------------------------------------4---|                                                                                     D|------------------------------------------------|
A|------------------------------------------------|
E|------------------------------------------------|
Mantendo Nossas Vidas Consagradas ao Senhor

E|-----4--4--4--2--0--0----0--2--2--2--4--2--|
B|-------------------------4-----------------|
G|---4---------------------------------------|
D|-------------------------------------------|
A|--------=----------------------------------|
E|------=-----------------------------------|
Do Céu Virão as bênçãos  pois Fiel é o Criador

E|-----4--4--4--2--0--0----0--2--0------0----------|
B|----------------------4-------------2------------|
G|--4---------------------------------------4------|
D|-------------------------------------------------|
A|-------------------------------------------------|
E|-------------------------------------------------|
A Graça Retenhamos sem jamais esmorecer
E|-------------------0--0--2--2--4--2--0---0-------|
B|-----2--2--4--4------------------------4--------|
G|--4--------------------------------------------------|
D|-----------------------------------------------------|
A|-----------------------------------------------------|
E|-----------------------------------------------------|
Jesus venceu o Mundo e nos fará prevalecer
   E|-----0-----0-------------|-----2----2---0--------|----4--2--0----2--0------------0--0----0-----|
   B|---------------4--2--2---|--2----2----------4----|------------4--------4--2------------4-------|
   G|--4----4---------------- |-----------------------|--4-------------------------4----------------|
   D|-------------------------|-----------------------|---------------------------------------------|
   A|-------------------------|-----------------------|---------------------------------------------|
   E|-------------------------|-----------------------|---------------------------------------------|
     Amados Não temamos         Na marcha para os céus  A Cristo obedeçamos  pois nos leva para Deus.

Clipes

Cifra Club Pro

Aproveite o Cifra Club com benefícios exclusivos e sem anúncios
Cifra Club Pro
Aproveite o Cifra Club com benefícios exclusivos e sem anúncios