busca

256 - Ó Minha Alma, Porque Te Abates?

Hinos Avulsos CCB

Tom: D
[Intro] Em  A7  D
        Em  A7  D

E|----------------------------------------------------|
B|----------------------------------------------------|
G|---7-9-9/11\9------6-7-7/9\7------------------------| (2x)
D|-7---------------7----------------------------------|
A|----------------------------------------------------|
E|----------------------------------------------------|

[Primeira Parte]

        D                  D7  Bm
Ó minha alma, por que te aba--tes?
           Em   A7             D    A7
Em Deus espera,   nos teus combates
          D             D7
Se entre males tu te debates
            A7          D
Em Deus confia, Ele é fiel

[Refrão]

             A7             D   Bm
Deus é o Sustento da minha vida
           Em  A7            D   D7
Dará consolo,     em toda a lida
           G    A7            F#m  Bm
Ao Seu descanso,  Deus te convida
        Em   A7           D
Ó minha alma,  confia em Deus

[Solo] Em  A7  D
       Em  A7  D

E|----------------------------------------------------|
B|----------------------------------------------------|
G|---7-9-9/11\9------6-7-7/9\7------------------------| (2x)
D|-7---------------7----------------------------------|
A|----------------------------------------------------|
E|----------------------------------------------------|

[Segunda Parte]

              D              D7  Bm
Por que, minh'alma, estás aflita?
            Em  A7           D   A7
Deus te consola,  confiando fica
         D            D7
Só Ele guarda e santifica
           A7           D
Se firme n'Ele, que é fiel

[Refrão]

             A7             D   Bm
Deus é o Sustento da minha vida
           Em  A7            D   D7
Dará consolo,     em toda a lida
           G    A7            F#m  Bm
Ao Seu descanso,  Deus te convida
        Em   A7           D
Ó minha alma,  confia em Deus

[Solo] Em  A7  D
       Em  A7  D

E|----------------------------------------------------|
B|----------------------------------------------------|
G|---7-9-9/11\9------6-7-7/9\7------------------------| (2x)
D|-7---------------7----------------------------------|
A|----------------------------------------------------|
E|----------------------------------------------------|

[Terceira Parte]

          D               D7  Bm
Vigor e graça só Deus concede
            Em  A7        D   A7
Com fé suplica,    a Ele pede
         D                  D7
Jesus o Justo, por ti intercede
         A7            D
Sê minha alma a Deus Fiel

[Refrão]

             A7             D   Bm
Deus é o Sustento da minha vida
           Em  A7            D   D7
Dará consolo,     em toda a lida
           G    A7            F#m  Bm
Ao Seu descanso,  Deus te convida
        Em   A7           D
Ó minha alma,  confia em Deus

[Final] Em  A7  D
        Em  A7  D

E|----------------------------------------------------|
B|----------------------------------------------------|
G|---7-9-9/11\9------6-7-7/9\7------------------------| (2x)
D|-7---------------7----------------------------------|
A|----------------------------------------------------|
E|----------------------------------------------------|

Clipes

Cifra Club Pro

Aproveite o Cifra Club com benefícios exclusivos e sem anúncios
Cifra Club Pro
Aproveite o Cifra Club com benefícios exclusivos e sem anúncios