A
123
X02220
Am
123
X02210
Bm
234
X24432
C
123
X32010
D
123
XX0232
Em
12
022000
F
234
133211
G
123
320003
Tom: G
Introdução:


         C            G           
E|-8---10-10/12-10--7--7-7-8-10-5-
B|-5----------------8-------------
G|-5-5--------------7-7-----------
D|------------------5-------------
A|--------------------------------
E|-8------------------------------
   Am              F
E|-----5-5-7-8-5-----------|     
B|-5--5-----------6-----6--|     
G|-5-5------------5----5---|(2x) 
D|-7--------------7---7----|     
A|----------------8--8-----|     
E|-5-----------------------|     


Primeira Parte:
C        G            Am        
A angústia, tomou conta, do seu 
     F
coração
C     G       Am       F
O choro aumenta, a sua aflição
  Am  Em       F             C  
Precisa de força, para caminhar,
            Am
 para caminhar
       Em           F         
Não temas Deus te ama, e vai te 
      G
ajudar

Refrão:
      C          G              
Deus vai te exaltar através desta 
Am
canção
   F          C          G
E tudo vai mudar na sua vida irmão
     C            G      Am
Não temas Deus ouviu sua oração
F G Fica em paz pois, tudo está em C suas mãos ( C G Am F ) Segunda Parte: C G Am F Se tudo dá errado, na sua vida C G Am É o tempo de guerra, mas tudo vai F passar Am Em F C Precisa de forças, para Am caminhar, para caminhar Am Em F Não temas Deus te ama, e vai te G ajudar Refrão: C G Deus vai te exaltar através desta Am canção F C G E tudo vai mudar na sua vida irmão C G Am Não temas Deus ouviu sua oração F G Fica em paz pois, tudo está em C suas mãos (A) D A Deus vai te exaltar através desta Bm canção G D A E tudo vai mudar na sua vida irmão D A Bm Não temas Deus ouviu sua oração G A Fica em paz pois, tudo está em D suas mãos G A Fica em paz pois, tudo está em D suas mãos
Composição: João PauloColaboração e revisão: Lucas KappaunDoisirmãos MarcioLuan IsmarSamuel Alvese mais 8