busca

A Carta

Hinos Avulsos CCB

Tom: A (forma dos acordes no tom de G) Capotraste na 2ª casa
Intro:

    Em            C                    G        D

E|---0-----0--------0-----0--0--0------0h3---3---2---2--3--3/5-----|
B|---0-----0--------1-----1--3--3/5----0h3---3---3---3--3--3/5-----|
G|------0-----0--------0---------------------------2---------------|
D|-----2-----2--------2--------------------0-----0-----------------|
A|------------------3----------------------------------------------|
E|---0-----0---------------------------0h3-------------------------|

Verso:

      Em            C            G            D

E|---0-----0------0------0------3-----3------2------2-----|
B|---0-----0------1------1------3-----3------3------3-----|
G|------0-----0-------0-----0------0-----0-------2------2-|
D|-----2-----2------2------2------0-----0----0--0---0--0--|
A|----------------3------3--------------------------------|
E|---0-----0--------------------3-----3-------------------|

Primeira Parte:
 Em       C      G   D
Vejo a pluma as folhas, a mão do destro escritor
 Em    C       G          D
Vejo vidas e decretos, escritas pelo Criador
 Em     C       G   D
Vejo homens alterando, os parágrafos que ele pensou
 Em     C     G         D
Vejo Deus sendo traído, pelo bichinho que criou

Passagem 2x: Em  C  G  D

 Em    C      G         D
Nossa vida é a carta, que o gentio para pra ler
 Em   C     G     D
Comunica a mensagem, que na terra se vem a trazer
 Em    C           G           D
Nossa história é feita punho, Escrita por Deus Senhor
 Em       C       G        D           Em C  G D
Testifica bom testemunho,se cheia de luz em meio ao labor

Refrão:
 Em       C            G   D               Em
Não queira ditar ao Destro Escritor, Ele sabe o que escrever
       C          G      D               Em
Não queira mudar o tema do Autor, com final que você não quer ler
       C             G   D               Em
Não queira ditar ao Destro Escritor, Ele sabe o que escrever
       C          G      D               Em  C G
Não queira mudar o tema do Autor, com final que você não quer ler
     D             Em
Com um final que você não quer ler

Em     C        G          D
É relato mais é carta, é preciso paz interior
Em         C        G           D
A história fica mais linda, escrita por Deus Escritor
 Em   C      G              D
Boa carta comunica, que há um ser de Infinito Poder
 Em     C     G        D
Que restaura modifica, e enriquece e faz florescer

Ponte:
Em7        C9         G             D
E o impossível faz acontecer o testemunho o entrar e sair
      Em7             C9          G
O ir e vir é a carta que comunica aos homens de onde se vem
      D                      Em7
Pra onde se vai o preço a pagar e o fim a se ter
     C9              G
Ei você ai a sua carta comunica o quê?
      D
Céu ou o abismo?

Em7     C9       G          D
É notório nossa carta, as almas sedentas do bem
Em7        C9       G           D        Em7   C9  G
O final é você quem escolhe, mas só Deus Escritor pode ir além
      D        Em7
Deus Escritor pode ir além

Refrão:
 Em7       C9          G    D
Não queira ditar ao Destro Escritor, Ele sabe o que escrever
 Em7         C9      G      D
Não queira mudar o tema do Autor, com final que você não quer ler
 Em7       C9            G  D
Não queira ditar ao Destro Escritor, Ele sabe o que escrever
 Em7         C9      G     D                Em7  C9 G
Não queira mudar o tema do Autor, com final que você não quer ler
     D             Em7  C9 G
Com um final que você não quer ler

Clipes