busca

A Carta

Hinos Avulsos CCB

Tom: G
     Em                    C                               G                    
E|------------------------------------3----3p2------2--3--3/5-----|
B|--0-----0-----1-----1--3--3/5--0h3----3---------3---------------|
G|------0-----0-----0---------------------0----2------------------|
D|----2-----2-----2-------------------------0-------0-------------|
A|--2-----2-----3-----3-------------------------------------------|
E|-------------------------------3----3---------------------------|

  Em7           C                     G         D
E|--2-------------------------------------3----3p2----2--3--3/5---|
B|--------0-----1--1--3--3/5--5/3--1--0h3---3-------3-------------|
G|------0-----0-------------------------------0---2---------------|
D|----2-----2-----------------------------------0-----------------|
A|--2-----2-----3-------------------------------------------------|
E|------------------------------------3---3-----------------------|

Em           C          G  D                      Em
 Vejo a pluma as folhas, a mão do destro escritor
          C          G             D         Em
Vejo vidas e decretos, escritas pelo Criador                             
           C         G       D                      Em             
Vejo homens alterando, os parágrafos que ele pensou 
          C             G            D
Vejo Deus sendo traído, pelo bichinho que criou

Em         C         G          D                 
 Nossa vida é a carta, que o gentio para pra ler                               
Em       C          G        D
 Comunica a mensagem, que na terra se vem a trazer
                                           
Em             C              G            D 
 Nossa história é feita punho, Escrita por Deus Senhor
Em        C              G            D                   Em C G D
 Testifica bom testemunho,se cheia de luz em meio ao labor

Em            C                  G    D    
 Não queira ditar ao Destro Escritor, Ele sabe o que escrever
Em             C                G         D                
 Não queira mudar o tema do Autor, com final que você não quer ler
Em            C                  G    D                       
 Não queira ditar ao Destro Escritor, Ele sabe o que escrever
Em             C               G          D                      Em  
 Não queira mudar o tema do Autor, com final que você não quer ler
C   G             D                                   
         Com um final que você não quer ler

Em       C            G               D
 É relato mais é carta, é preciso paz interior
Em           C              G            D
 A história fica mais linda, escrita por Deus Escritor
Em         C       G                      D
 Boa carta comunica, que há um ser de Infinito Poder
Em           C         G       D
 Que restaura modifica, e enriquece e faz florescer

     Em                    C                               G                    
E|------------------------------------3----3p2------2--3--3/5-----|
B|--0-----0-----1-----1--3--3/5--0h3----3---------3---------------|
G|------0-----0-----0---------------------0----2------------------|
D|----2-----2-----2-------------------------0-------0-------------|
A|--2-----2-----3-----3-------------------------------------------|
E|-------------------------------3----3---------------------------|

  Em7           C                      G        D
E|--2-------------------------------------3----3p2----2--3--3/5---|
B|--------0-----1--1--3--3/5--5/3--1--0h3---3-------3-------------|
G|------0-----0-------------------------------0---2---------------|
D|----2-----2-----------------------------------0-----------------|
A|--2-----2-----3-------------------------------------------------|
E|------------------------------------3---3-----------------------|

Em7            C            G                    D
 E o impossível faz acontecer, o testemunho, o entrar e sair
        Em7                 C                G
 O ir e vir, é a carta que comunica aos homens de onde se vem
          D                                   Em7
 Pra onde se vai, o preço a pagar, e o fim a se ter
        C                    G
 Ei você ai, a sua carta comunica o quê?
           D
 Céu ou o abismo?

Em          C           G            D
  É notório nossa carta, as almas sedentas do bem
Em          C                G                  D              Em 
  O final é você quem escolhe, mas só Deus Escritor pode ir além
C    G               D           
         Deus Escritor pode ir além

Em              C                 G    D
  Não queira ditar ao Destro Escritor, Ele sabe o que escrever
Em             C               G           D
  Não queira mudar o tema do Autor, com final que você não quer ler
Em              C                G     D
  Não queira ditar ao Destro Escritor, Ele sabe o que escrever
Em             C                G           D                    Em   
  Não queira mudar o tema do Autor, com final que você não quer ler
C    G              D                      
          Com um final que você não quer ler

[Final]

   Em          C                 G         D           
E|------------------------------------3----3p2------2--3--3/5-----|
B|--0-----0-----1-----1--3--3/5--0h3----3---------3---------------|
G|------0-----0-----0---------------------0----2------------------|
D|----2-----2-----2-------------------------0-------0-------------|
A|--2-----2-----3-----3-------------------------------------------|
E|-------------------------------3----3---------------------------|

  Em7          C                     G         D
E|--2-------------------------------------3-----2-----2--3--3/5-0-|
B|--------0-----1--1--3--3/5--5/3--1--0h3---3-------3-----------0-|
G|------0-----0-------------------------------0---2-------------0-|
D|----2-----2-----------------------------------0---------------2-|
A|--2-----2-----3-----------------------------------------------2-|
E|------------------------------------3---3---------------------0-|

Clipes

Cifra Club Pro

Aproveite o Cifra Club com benefícios exclusivos e sem anúncios
Cifra Club Pro
Aproveite o Cifra Club com benefícios exclusivos e sem anúncios