A
123
X02220
Bm
234
X24432
E
123
022100
F#m
34
244222
Tom: G
Intro:A E F#m Bm A E

(O Hino Avulso Fica Melhor sendo tocado Com Dois Violões Para melhor desempenho do dedilhado.)

#1t1#      A
#1t2#E|----------------0-0-0--------------------------------0-0-0|
B|---0h2-0-0h2--------------------0h2-0-0h2-3h2-------------|
G|-------------2--------------------------------4h2-2-------|
D|----------------------------------------------------------|
A|-0-------------------------0------------------------------|
E|-----------------------0h2--------------------------------|#/1t2##/1t1#

#2t1#       E                      Bm             E Bm A
#2t2#E|---------X------------X-------1-X--------0------0--------|
B|-------0-X--3-2-3-2p0-X-------3-X-3-2-0p0-0-2-2h5-2------|
G|-------1-X------------X-------4-X------------------4h2-2-|
D|-------2-X------------X-------4-X------------------------|
A|-----2-2-X------------X-0h2-2-1-X-----------------------0|
E|-0h2-----X------------X-------1-X------------------------|#/2t2##/2t1#


A    E     F#m
Não Sei Por Que 
A  E     F#m
Eu Sofro Assim
Bm  A    E
A  Minha Fé
Bm       A       E
Está Chegando Ao Fim

A    E   F#m
Meu Coração
A    E    F#m
Tem Muita Dor
Bm  A   E
Ó Meu Senhor
Bm   A      E
Vem Diz Pra Mim

(REFRÃO)
          A            E         F#m
Quando Eu Olho Para o Céu e De Onde Me Virá 
    Bm            A       E
O Socorro Que Eu Tanto Esperei?
       A             E
Pois o Meu Socorro Vem
     F#m             E       Bm
Do Senhor Que Fez Os Céus e a Terra 
 Bm     A       E                  A E F#m Bm ...
O Universo Enfim... O Universo Enfim...

#3t1##3t2#E|------0--------|
B|0-2-2h5-2------|
G|---------4h2-2-|
D|---------------|
A|--------------0|
E|---------------|#/3t2##/3t1#

A    E     F#m
Não Sei Por Que 
A  E     F#m
Eu Sofro Assim
Bm  A    E
A  Minha Fé
Bm       A       E
Está Chegando Ao Fim

A    E   F#m
Meu Coração
A    E    F#m
Tem Muita Dor
Bm  A   E
Ó Meu Senhor
Bm   A      E
Vem Diz Pra Mim

(REFRÃO)
          A            E         F#m
Quando Eu Olho Para o Céu e De Onde Me Virá 
    Bm            A       E
O Socorro Que Eu Tanto Esperei?
       A             E
Pois o Meu Socorro Vem
     F#m             E       Bm
Do Senhor Que Fez Os Céus e a Terra 
 Bm     A       E                  A E F#m Bm  ...
O Universo Enfim... O Universo Enfim.


#4t1##4t2#E|------0--------|
B|0-2-2h5-2------|
G|---------4h2-2-|
D|---------------|
A|--------------0|
E|---------------|#/4t2##/4t1#

              (A E F#m Bm)-Dedilhado.
O Universo Enfim...
Composição: Alice Candido / Amanda Santos / Ana / Ana Paula / Andrew Amaurick / Beto / Carol / CCB / Ccb Hino Avulso / Congregação Cristã No Brasil / Daniel Barbosa / Daniel de Itapé / Denys / Desconhecido / Ebner Crispim / Eduardinho / Fernando / Gabriel Almeida / Gabriel de Janaúba / Ir. Miro e Leandro / Irmão Shmidt / Irmãos / Irmãos Shmidt / Isaac Hickman Meredith / Isaac Nascimento / Jefferson / Jefferson Cano / Jesus Cristo / João Cândido / João Carlos / João Paulo / Joel Massami De Oliveira / Juh ueno / Juninho Portugal / LEANDRO SOUZA / Lucas Leitte / Mateus Alves / Matheus Wyllker / Mauricio De Anadias / Mello / Meninos Da Fazenda Rio Grande / Mickaelly Livio / Pamela / Paulo Henrique Cipriano / Paulo Sérgio / Príncipe Music / Reis / Rodrigo Vieira / Sam Oliver / Thiago Ribeiro / Vitor Dias / W. Silva / WaguinhoColaboração e revisão: Matheus