Por Mais Que a Luta Esteja Grande

Hinos Avulsos CCB

A
123
X02220
D
123
XX0232
F#m
34
244222
G
123
320003
Tom: G
#1t1#Intro: D  F#m  G  A  D
#1t2#E|--2-3-5-5-5-5-7-7-7-7-5-7-5-7-5-3-2-2---------------|
B|--3-5-7-7-7-7-8-8-8-8-7-8-7-8-7-5-3-3---------------|
G|----------------------------------------------------|
D|----------------------------------------------------|
A|----------------------------------------------------|
E|----------------------------------------------------|#/1t2##/1t1#

#2t1##2t2#E|--2-2-3-3/5-3-3-3-2-2-2-----------------------------|
B|--3-3-5-5/7-5-5-5-3-3-3--3-3-3-2-3-2-3-2-3/5-3------|
G|-------------------------4-4-4-2-4-2-4-2-4/6-4------|
D|----------------------------------------------------|
A|----------------------------------------------------|
E|----------------------------------------------------|#/2t2##/2t1#


D              F#m          G
Por mais que a luta, esteja grande
   A            D
Você tem que lutar
D              F#m          G
Por mais que a guerra se levante,
    A               D
Teu Deus contigo está
    F#m               G         A          D
Por ma-a-a-ais, que o mundo desafie a sua fé
    F#m               G          A               D
Por ma-a-a-ais, que esteja tão difícil estar de pé
         F#m          G         A       D
Amigo eu venho nesse canto,pra te anunciar
          F#m         G         A             D
Que o teu Deus te ama tanto, e não vai te deixar
    F#M      G              A           D
Amigo-o-o o amor que Deus depositou em mim
    F#m              G            A         D
Eu venho-o-o com alegria e posso te dizer assim:

Refrão:
             F#m      G
Não vai, não vai desistir
   A                 D
O mundo não vai te ganhar
             F#m       G
Não vai, não vai desistir
   A             D
O céu é o teu lugar

#3t1#Intro: D  F#m  G  A  D
#3t2#E|--2-3-5-5-5-5-7-7-7-7-5-7-5-7-5-3-2-2---------------|
B|--3-5-7-7-7-7-8-8-8-8-7-8-7-8-7-5-3-3---------------|
G|----------------------------------------------------|
D|----------------------------------------------------|
A|----------------------------------------------------|
E|----------------------------------------------------|#/3t2##/3t1#

#4t1##4t2#E|--2-2-3-3/5-3-3-3-2-2-2-----------------------------|
B|--3-3-5-5/7-5-5-5-3-3-3--3-3-3-2-3-2-3-2-3/5-3------|
G|-------------------------4-4-4-2-4-2-4-2-4/6-4------|
D|----------------------------------------------------|
A|----------------------------------------------------|
E|----------------------------------------------------|#/4t2##/4t1#


D              F#m          G
Por mais que a luta, esteja grande
   A            D
Você tem que lutar
D              F#m          G
Por mais que a guerra se levante,
    A               D
Teu Deus contigo está
       F#m                G           A          D
Por ma-a-a-ais, que a tua fé tão pequenina se tornou
       F#m               G          A          D
Por ma-a-a-ais, toda alegria que restava se acabou
         F#m          G                A           D
Tu é de Deus, e toda força que vale em ti, ele te dá
          F#m         G         A             D
Para encarar, toda maldade, que nessa terra está
    F#M      G              A           D
Amigo-o-o o amor que Deus depositou em mim
    F#m              G            A         D
Eu venho-o-o com alegria e posso te dizer assim:

Refrão:
             F#m      G
Não vai, não vai desistir
    A                D
Um anjo vem pra te tocar
             F#m      G
Não vai, não vai desistir
A           D
Deus te ama-a

Final: D  F#m  G  A  D

#5t1##5t2#E|--2-3-5-5-5-5-7-7-7-7-5-7-5-7-5-3-2-2---------------|
B|--3-5-7-7-7-7-8-8-8-8-7-8-7-8-7-5-3-3---------------|
G|----------------------------------------------------|
D|----------------------------------------------------|
A|----------------------------------------------------|
E|----------------------------------------------------|#/5t2##/5t1#

#6t1##6t2#E|--2-2-3-3/5-3-3-3-2-2-2-----------------------------|
B|--3-3-5-5/7-5-5-5-3-3-3--3-3-3-2-3-2-3-2-3/5-3------|
G|-------------------------4-4-4-2-4-2-4-2-4/6-4------|
D|----------------------------------------------------|
A|----------------------------------------------------|
E|----------------------------------------------------|#/6t2##/6t1#
Composição: Andrew Amaurick / CCB / Congregação Cristã No Brasil / Fernando / Jefferson Cano / Juh ueno / Mauricio De Anadias / Mello / Pamela / Príncipe Music / Reis / WaguinhoColaboração e revisão: gustavo