busca

Por Mais Que a Luta Esteja Grande

Hinos Avulsos CCB

Tom: D
Intro: D  F#m  G  A  D
E|--2-3-5-5-5-5-7-7-7-7-5-7-5-7-5-3-2-2---------------|
B|--3-5-7-7-7-7-8-8-8-8-7-8-7-8-7-5-3-3---------------|
G|----------------------------------------------------|
D|----------------------------------------------------|
A|----------------------------------------------------|
E|----------------------------------------------------|

E|--2-2-3-3/5-3-3-3-2-2-2-----------------------------|
B|--3-3-5-5/7-5-5-5-3-3-3--3-3-3-2-3-2-3-2-3/5-3------|
G|-------------------------4-4-4-2-4-2-4-2-4/6-4------|
D|----------------------------------------------------|
A|----------------------------------------------------|
E|----------------------------------------------------|


D              F#m          G
Por mais que a luta, esteja grande
   A            D
Você tem que lutar
D              F#m          G
Por mais que a guerra se levante,
    A               D
Teu Deus contigo está
    F#m               G         A          D
Por ma-a-a-ais, que o mundo desafie a sua fé
    F#m               G          A               D
Por ma-a-a-ais, que esteja tão difícil estar de pé
         F#m          G         A       D
Amigo eu venho nesse canto,pra te anunciar
          F#m         G         A             D
Que o teu Deus te ama tanto, e não vai te deixar
    F#M      G              A           D
Amigo-o-o o amor que Deus depositou em mim
    F#m              G            A         D
Eu venho-o-o com alegria e posso te dizer assim:

Refrão:
             F#m      G
Não vai, não vai desistir
   A                 D
O mundo não vai te ganhar
             F#m       G
Não vai, não vai desistir
   A             D
O céu é o teu lugar

Intro: D  F#m  G  A  D
E|--2-3-5-5-5-5-7-7-7-7-5-7-5-7-5-3-2-2---------------|
B|--3-5-7-7-7-7-8-8-8-8-7-8-7-8-7-5-3-3---------------|
G|----------------------------------------------------|
D|----------------------------------------------------|
A|----------------------------------------------------|
E|----------------------------------------------------|

E|--2-2-3-3/5-3-3-3-2-2-2-----------------------------|
B|--3-3-5-5/7-5-5-5-3-3-3--3-3-3-2-3-2-3-2-3/5-3------|
G|-------------------------4-4-4-2-4-2-4-2-4/6-4------|
D|----------------------------------------------------|
A|----------------------------------------------------|
E|----------------------------------------------------|


D              F#m          G
Por mais que a luta, esteja grande
   A            D
Você tem que lutar
D              F#m          G
Por mais que a guerra se levante,
    A               D
Teu Deus contigo está
       F#m                G           A          D
Por ma-a-a-ais, que a tua fé tão pequenina se tornou
       F#m               G          A          D
Por ma-a-a-ais, toda alegria que restava se acabou
         F#m          G                A           D
Tu é de Deus, e toda força que vale em ti, ele te dá
          F#m         G         A             D
Para encarar, toda maldade, que nessa terra está
    F#M      G              A           D
Amigo-o-o o amor que Deus depositou em mim
    F#m              G            A         D
Eu venho-o-o com alegria e posso te dizer assim:

Refrão:
             F#m      G
Não vai, não vai desistir
    A                D
Um anjo vem pra te tocar
             F#m      G
Não vai, não vai desistir
A           D
Deus te ama-a

Final: D  F#m  G  A  D

E|--2-3-5-5-5-5-7-7-7-7-5-7-5-7-5-3-2-2---------------|
B|--3-5-7-7-7-7-8-8-8-8-7-8-7-8-7-5-3-3---------------|
G|----------------------------------------------------|
D|----------------------------------------------------|
A|----------------------------------------------------|
E|----------------------------------------------------|

E|--2-2-3-3/5-3-3-3-2-2-2-----------------------------|
B|--3-3-5-5/7-5-5-5-3-3-3--3-3-3-2-3-2-3-2-3/5-3------|
G|-------------------------4-4-4-2-4-2-4-2-4/6-4------|
D|----------------------------------------------------|
A|----------------------------------------------------|
E|----------------------------------------------------|

Clipes