Por Que Ele Vive

Hinos Avulsos CCB

Bb
234
X13331
Cm
234
X35543
D#°
1234
XX1212
Ebm
1234
XX1342
G
123
320003
G#
234
431114
Tom: G
#1t1#(intro)
#1t2#E|---------------------------------------------------------------------------------------------------------------------
B|-----------------------------------------1-----4------3-----1------------------1----------------------------------
G|------0-----1-----0------1------3---------------------------------3-----1-------------1--0----------------------
D|---------------------------------------------------------------------------------------------------------------------
A|---3-----3-----3-----3-------3-----3-----3-------3-----3-----3-----3-----3-----3-------------------------------
E|----------------------------------------------------------------------------------------------------------------------#/1t2##/1t1#

#2t1##2t2#E|----------------------------------------------------------------------------1-----------------------------------------
B|-----------------------------------------1-----4------3----1-------------------4-----3-----1----------------------
G|------0-----1-----0------1------3---------------------------------3-----------------------------------------------
D|---------------------------------------------------------------------------------------------------------------------
A|---3-----3-----3-----3-------3-----3-----3------3-----3-----3-----3-----3-----3-----3-------------------------
E|---------------------------------------------------------------------------------------------------------------------#/2t2##/2t1#

#3t1##3t2#E|-------3---1--------------------------------------------------------------------------------------------------------
B|------------------4----3----1--------------------------------------------------------------------------------------
G|--------------------------------------3----1-----0----------------------------------------------------------------
D|--------------------------------------------------------3-----1-----0----------------------------------3----------
A|--3----3-----3-----3-----3-----3-----3------3----3-----3-----3-----3----3---1-------------------3----------
E|--------------------------------------------------------------------------------------4-----3-----1-----1----------#/3t2##/3t1#

#4t1##4t2#D|--------------------------------------------------------------------------------------------------------------------
A|--------------6--------------6-------3----------------------------------------------------------------------------
E|-----4----3------4----3-------------------------------------------------------------------------------------------#/4t2##/4t1#

Cm               G#    G          Cm
O que acontece com você
                 G#              G
Os teus olhos vão mostrar
Cm                           Ebm
Desagrados, desprazer
Cm      D#°
Então, se questionar.

Cm           G#        G            Cm
Tudo com e/ou sem porquê.
         G#            G
Não consegue processar.
Cm                            Ebm                                     Cm
Vê, embora não sinta (não dá tempo, não dá tempo!)
                  D#°
Os carros passam mais devagar.

(refrão)
G#               G
Se cansa, ainda sente frio.
Cm                                 Bb
Não há razão pra chorar (não tem direito não!)
G#                              G
Então dorme e a chuva cai.

#5t1#(ponte)
#5t2#A|------3---3---3---3---3----3----3---1---4---3-----4----3----2--
E|---------------------------------------------------------------#/5t2##/5t1#
Composição: Alice Candido / Amanda Santos / Ana / Ana Paula / André De Itapetininga / Andrew Amaurick / Carol / CCB / Ccb Hino Avulso / Daniel / Daniel de Itapé / Daniel de itapetininga / Denys / Desconhecido / Ebner Crispim / Eduardinho / Fernando / Gabriel Almeida / Gustavo Lopes / Ir. Miro e Leandro / Irmão Shmidt / Irmãos / Irmãos Shmidt / Isaac Hickman Meredith / Isaac Nascimento / Jefferson / Jefferson Cano / Jesus Cristo / João Cândido / João Carlos / João Paulo / Joel Massami De Oliveira / Juh ueno / Juninho Portugal / LEANDRO SOUZA / Lucas Leitte / Mateus Alves / Matheus Wyllker / Mauricio De Anadias / Mello / Meninos Da Fazenda Rio Grande / Mickaelly Livio / Pamela / Paulo Henrique Cipriano / Paulo Sérgio / Príncipe Music / Reis / Rodrigo Vieira / Sam Oliver / Thiago Ribeiro / Vitor Dias / W. Silva / WaguinhoColaboração e revisão: Reginaldo MesquitaThiago Joseph