busca

Por Que Ele Vive

Hinos Avulsos CCB

Tom: E
(intro)
E|---------------------------------------------------------------------------------------------------------------------
B|-----------------------------------------1-----4------3-----1------------------1----------------------------------
G|------0-----1-----0------1------3---------------------------------3-----1-------------1--0----------------------
D|---------------------------------------------------------------------------------------------------------------------
A|---3-----3-----3-----3-------3-----3-----3-------3-----3-----3-----3-----3-----3-------------------------------
E|----------------------------------------------------------------------------------------------------------------------

E|----------------------------------------------------------------------------1-----------------------------------------
B|-----------------------------------------1-----4------3----1-------------------4-----3-----1----------------------
G|------0-----1-----0------1------3---------------------------------3-----------------------------------------------
D|---------------------------------------------------------------------------------------------------------------------
A|---3-----3-----3-----3-------3-----3-----3------3-----3-----3-----3-----3-----3-----3-------------------------
E|---------------------------------------------------------------------------------------------------------------------

E|-------3---1--------------------------------------------------------------------------------------------------------
B|------------------4----3----1--------------------------------------------------------------------------------------
G|--------------------------------------3----1-----0----------------------------------------------------------------
D|--------------------------------------------------------3-----1-----0----------------------------------3----------
A|--3----3-----3-----3-----3-----3-----3------3----3-----3-----3-----3----3---1-------------------3----------
E|--------------------------------------------------------------------------------------4-----3-----1-----1----------

D|--------------------------------------------------------------------------------------------------------------------
A|--------------6--------------6-------3----------------------------------------------------------------------------
E|-----4----3------4----3-------------------------------------------------------------------------------------------

Cm               Ab    G          Cm
O que acontece com você
                 Ab              G
Os teus olhos vão mostrar
Cm                           Ebm
Desagrados, desprazer
Cm      Eb°
Então, se questionar.

Cm           Ab        G            Cm
Tudo com e/ou sem porquê.
         Ab            G
Não consegue processar.
Cm                            Ebm                                     Cm
Vê, embora não sinta (não dá tempo, não dá tempo!)
                  Eb°
Os carros passam mais devagar.

(refrão)
Ab               G
Se cansa, ainda sente frio.
Cm                                 Bb
Não há razão pra chorar (não tem direito não!)
Ab                              G
Então dorme e a chuva cai.

(ponte)
A|------3---3---3---3---3----3----3---1---4---3-----4----3----2--
E|---------------------------------------------------------------

Clipes

Cifra Club Pro

Aproveite o Cifra Club com benefícios exclusivos e sem anúncios
Cifra Club Pro
Aproveite o Cifra Club com benefícios exclusivos e sem anúncios