busca

Senhor Meu Rei

Hinos Avulsos CCB

Tom: G
      G           C                D             C       G
E|------3-3------------0---0------------2---2-----------3-|
B|----0--0------------------1----------------3----------0-|
G|-------------------0---0------------2---2-------------0-|
D|------------------------------2-0---------------------0-|
A|-------------2-3------------3-----------------3-2-0---2-|
E|--3--------3------------------------------------------3-|

   G              C            D
Senhor aqui estou para te falar
     C               G
Que é grande teu amor
   G        C           D
Meu Deus aqui no Mundo
     C         G
Não quero ficar

  C                  D
Pois sei que ele é sujo
   Am                D
Eu quero ficar contigo

Refrão:
    G        C         D
Senhor meu Rei eu desejo
    C               G
Te sentir teu amor
    G       C         D
Louvar com todo meu ser
     C           G
Meu Deus eu te amo
   C          D  G
Como eu te amo

      G          C                D       G
E|------3-3------------0---0--------2-----3-|
B|----0--0------------------1--------3----0-|
G|-------------------0---0----------2-----0-|
D|------------------------------2-0-------0-|
A|-------------2-3------------3-----------2-|
E|--3--------3----------------------------3-|

Clipes

Cifra Club Pro

Aproveite o Cifra Club com benefícios exclusivos e sem anúncios
Cifra Club Pro
Aproveite o Cifra Club com benefícios exclusivos e sem anúncios