Ousado Amor

Isaías Saad

A9
12
X02200
B4
134
X24400
C#m
1234
X46650
E
123
022100
Tom: G
[Intro] C#m  B4  A9  E
        C#m  B4  A9  E

#1t1#[TAB Introdução]

#1t2#E|-0-0-0-0------------------2-2-2-2-0-0----------------|
B|---------4-4-4-4-2-2-0----------------4-4-2-2-0------|
G|------------------------1-----------------------1----|
D|-----------------------------------------------------|
A|-----------------------------------------------------|
E|-----------------------------------------------------|#/1t2##/1t1#

[Primeira Parte]

C#m                B4
    Antes de eu falar
             A9
Tu cantavas sobre mim
C#m               B4
    Tu tens sido tão
         A9
Tão bom     pra mim
C#m                   B4
    Antes de eu respirar
              A9
Sopraste Tua vida em mim
C#m               B4
    Tu tens sido tão
        A9
Tão bom    pra mim

[Refrão]

        C#m         B4
Oh, impressionante, infinito
     A9           E
E ousado amor de Deus
         C#m        B4
Oh, que deixa as noventa e nove
 A9              E
Só pra me encontrar
               C#m             B4
Não posso comprá-lo,  nem merecê-lo
         A9          E
Mesmo assim se entregou
        C#m         B4
Oh, impressionante, infinito
     A9           E
E ousado amor de Deus

( C#m  B4  A9  E )
( C#m  B4  A9  E )

#2t1#[Tab - Solo]

#2t2#E|-0-0-0-0------------------2-2-2-2-0-0----------------|
B|---------4-4-4-4-2-2-0----------------4-4-2-2-0------|
G|------------------------1-----------------------1----|
D|-----------------------------------------------------|
A|-----------------------------------------------------|
E|-----------------------------------------------------|#/2t2##/2t1#

[Segunda Parte]

C#m             B4
    Inimigo eu fui
              A9
Mas Teu amor lutou por mim
C#m               B4
    Tu tens sido tão
        A9
Tão bom    pra mim
C#m              B4
    Não tinha valor
          A9
Mas tudo pagou por mim
C#m               B4
    Tu tens sido tão
        A9
Tão bom    pra mim

[Refrão]

        C#m         B4
Oh, impressionante, infinito
     A9           E
E ousado amor de Deus
         C#m        B4
Oh, que deixa as noventa e nove
 A9              E
Só pra me encontrar
               C#m             B4
Não posso comprá-lo,  nem merecê-lo
         A9          E
Mesmo assim se entregou
        C#m         B4
Oh, impressionante, infinito
     A9           E
E ousado amor de Deus

( C#m  B4  A9  E )
( C#m  B4  A9  E )

#3t1#[TAB SOLO]

#3t2#E|-0-0-0-0------------------2-2-2-2-0-0----------------|
B|---------4-4-4-4-2-2-0----------------4-4-2-2-0------|
G|------------------------1-----------------------1----|
D|-----------------------------------------------------|
A|-----------------------------------------------------|
E|-----------------------------------------------------|#/3t2##/3t1#

[Terceira Parte]

C#m
    Traz luz para as sombras

Escala montanhas, pra me encontrar

Derruba muralhas

Destrói as mentiras, pra me encontrar
                  B4
Traz luz para as sombras
           A9                   E
Escala montanhas  pra me encontrar
C#m            B4
    Derruba muralhas
               A9                  E
Destrói as mentiras, pra me encontrar
C#m                   B4
    Traz luz para as sombras
           A9                   E
Escala montanhas, pra me encontrar
C#m            B4
    Derruba muralhas
               A9                  E
Destrói as mentiras, pra me encontrar
C#m                   B4
    Traz luz para as sombras
           A9                   E
Escala montanhas, pra me encontrar
C#m            B4
    Derruba muralhas
               A9                  E
Destrói as mentiras, pra me encontrar

[Refrão]

        C#m         B4
Oh, impressionante, infinito
     A9           E
E ousado amor de Deus
         C#m        B4
Oh, que deixa as noventa e nove
 A9              E
Só pra me encontrar
               C#m             B4
Não posso comprá-lo,  nem merecê-lo
         A9          E
Mesmo assim se entregou
        C#m         B4
Oh, impressionante, infinito
     A9           E
E ousado amor de Deus

( C#m  B4  A9  E )
( C#m  B4  A9  E )

#4t1#[TAB SOLO]

#4t2#E|-0-0-0-0------------------2-2-2-2-0-0----------------|
B|---------4-4-4-4-2-2-0----------------4-4-2-2-0------|
G|------------------------1-----------------------1----|
D|-----------------------------------------------------|
A|-----------------------------------------------------|
E|-----------------------------------------------------|#/4t2##/4t1#
Composição: Caleb Culver / Cory Asbury / Ran JacksonColaboração e revisão: Caico AntunesCifra ClubLucas KappaunSidnei juniore mais 1
Videoaula OUSADO AMOR (aula de violão completa)