busca Menu

Ousado Amor

Isaías Saad

Tom: F# (forma dos acordes no tom de E) Capotraste na 2ª casa
[Intro] C#m  B4  A9  E
        C#m  B4  A9  E

[TAB Introdução]

E|-0-0-0-0------------------2-2-2-2-0-0----------------|
B|---------4-4-4-4-2-2-0----------------4-4-2-2-0------|
G|------------------------1-----------------------1----|
D|-----------------------------------------------------|
A|-----------------------------------------------------|
E|-----------------------------------------------------|

[Primeira parte]

C#m                B4
    Antes de eu falar
             A9
Tu cantavas sobre mim
C#m               B4
    Tu tens sido tão
         A9
Tão bom     pra mim
C#m                   B4
    Antes de eu respirar
              A9
Sopraste Tua vida em mim
C#m               B4
    Tu tens sido tão
        A9
Tão bom    pra mim

[Refrão]

        C#m         B4
Oh, impressionante, infinito
     A9           E
E ousado amor de Deus
         C#m        B4
Oh, que deixa as noventa e nove
 A9              E
Só pra me encontrar
               C#m             B4
Não posso comprá-lo,  nem merecê-lo
         A9          E
Mesmo assim se entregou
        C#m         B4
Oh, impressionante, infinito
     A9           E
E ousado amor de Deus

( C#m  B4  A9  E )
( C#m  B4  A9  E )

[TAB SOLO]

E|-0-0-0-0------------------2-2-2-2-0-0----------------|
B|---------4-4-4-4-2-2-0----------------4-4-2-2-0------|
G|------------------------1-----------------------1----|
D|-----------------------------------------------------|
A|-----------------------------------------------------|
E|-----------------------------------------------------|

[Segunda parte]

C#m             B4
    Inimigo eu fui
              A9
Mas Teu amor lutou por mim
C#m               B4
    Tu tens sido tão
        A9
Tão bom    pra mim
C#m              B4
    Não tinha valor
          A9
Mas tudo pagou por mim
C#m               B4
    Tu tens sido tão
        A9
Tão bom    pra mim

[Refrão]

        C#m         B4
Oh, impressionante, infinito
     A9           E
E ousado amor de Deus
         C#m        B4
Oh, que deixa as noventa e nove
 A9              E
Só pra me encontrar
               C#m             B4
Não posso comprá-lo,  nem merecê-lo
         A9          E
Mesmo assim se entregou
        C#m         B4
Oh, impressionante, infinito
     A9           E
E ousado amor de Deus

( C#m  B4  A9  E )
( C#m  B4  A9  E )

[TAB SOLO]

E|-0-0-0-0------------------2-2-2-2-0-0----------------|
B|---------4-4-4-4-2-2-0----------------4-4-2-2-0------|
G|------------------------1-----------------------1----|
D|-----------------------------------------------------|
A|-----------------------------------------------------|
E|-----------------------------------------------------|

[Terceira parte]

C#m
    Traz luz para as sombras

Escala montanhas, pra me encontrar

Derruba muralhas

Destrói as mentiras, pra me encontrar
                  B4
Traz luz para as sombras
           A9                   E
Escala montanhas  pra me encontrar
C#m            B4
    Derruba muralhas
               A9                  E
Destrói as mentiras, pra me encontrar
C#m                   B4
    Traz luz para as sombras
           A9                   E
Escala montanhas, pra me encontrar
C#m            B4
    Derruba muralhas
               A9                  E
Destrói as mentiras, pra me encontrar
C#m                   B4
    Traz luz para as sombras
           A9                   E
Escala montanhas, pra me encontrar
C#m            B4
    Derruba muralhas
               A9                  E
Destrói as mentiras, pra me encontrar

[Refrão]

        C#m         B4
Oh, impressionante, infinito
     A9           E
E ousado amor de Deus
         C#m        B4
Oh, que deixa as noventa e nove
 A9              E
Só pra me encontrar
               C#m             B4
Não posso comprá-lo,  nem merecê-lo
         A9          E
Mesmo assim se entregou
        C#m         B4
Oh, impressionante, infinito
     A9           E
E ousado amor de Deus

( C#m  B4  A9  E )
( C#m  B4  A9  E )

[TAB SOLO]

E|-0-0-0-0------------------2-2-2-2-0-0----------------|
B|---------4-4-4-4-2-2-0----------------4-4-2-2-0------|
G|------------------------1-----------------------1----|
D|-----------------------------------------------------|
A|-----------------------------------------------------|
E|-----------------------------------------------------|

Clipes