Me Leva Pra Casa

Israel Subirá

Am
123
X02210
C
123
X32010
F
234
133211
G
123
320003
Tom: G
[Intro] C  G  Am  F
        C  G  Am  F
        C  G  Am  F
        C  G  Am  F


E|------------------------------
B|5-----12-------12h13p12----10-
G|--5------12-------------------
D|------------------------------
A|------------------------------
E|------------------------------

E|-----| 
B|10---| 
G|---10| 
D|-----| 
A|-----| 
E|-----| 



E|------------------------------
B|5-----12-------12h13p12----10-
G|--5------12-------------------
D|------------------------------
A|------------------------------
E|------------------------------

E|-----| 
B|10---| 
G|---10| 
D|-----| 
A|-----| 
E|-----| 



E|------------------------------
B|5-----12-------12h13p12----10-
G|--5------12-------------------
D|------------------------------
A|------------------------------
E|------------------------------

E|-----| 
B|10---| 
G|---10| 
D|-----| 
A|-----| 
E|-----| 



E|------------------------------
B|5-----12-------12h13p12----10-
G|--5------12-------------------
D|------------------------------
A|------------------------------
E|------------------------------

E|-----| 
B|10---| 
G|---10| 
D|-----| 
A|-----| 
E|-----| 



E|--------------------------------
B|10-----10------10~--------------
G|---10------10-------------------
D|--------------------------------
A|--------------------------------
E|--------------------------------


[Primeira Parte]

               C
Como pode me amar, Deus?
      G           Am
Conhecendo meu pecado
   F                        C
Sabendo o que eu faço de errado
      G              F
Como pode me amar assim?

               C
Como pode me amar, Deus?
   G                Am
Sabendo que eu sou falho
         F                  C    G
E que o meu coração já não bate mais
           F
Como já bateu

               C
Como pode me amar Deus?
   G                Am
Sabendo que eu fugiria
   F                   C
Se a porta estivesse aberta
      G               F
Como pode em mim confiar?

[Refrão]

            C
E ainda me pega quando estou caindo
        G
E me abraça quando estou chorando
     Am             F
E segura as minhas mãos
               C
E me leva pra perto das chamas de 
amor
    G                       Am
Que ardem em teu coração e não
             F
Se podem conter

           C
Como uma flecha que estoura em meu 
peito
G E me traz de joelhos enquanto eu Am choro F Tenha o meu coração C Minh'alma soluça quando eu percebo G o contato Am F De seus olhos com os meus [Solo] C G Am F C G Am F E|------------------------------ B|5-----12-------12h13p12----10- G|--5------12------------------- D|------------------------------ A|------------------------------ E|------------------------------ E|-----| B|10---| G|---10| D|-----| A|-----| E|-----| E|------------------------------ B|5-----12-------12h13p12----10- G|--5------12------------------- D|------------------------------ A|------------------------------ E|------------------------------ E|-----| B|10---| G|---10| D|-----| A|-----| E|-----| E|-------------------------------- B|10-----10------10~-------------- G|---10------10------------------- D|-------------------------------- A|-------------------------------- E|-------------------------------- [Segunda Parte] C Como pode me amar, Deus? G Am Sabendo o que eu diria F C Sabendo que eu me frustraria G F Como pode me amar assim? C Como pode me amar, Deus? G Am Sabendo que eu te culparia F C Pelo que não foi como eu queria G F Como pode me amar assim? C Como pode me amar Deus? G Am Sabendo que eu me fecharia F C Quando você quisesse entrar G F Como pode em mim confiar? [Refrão] C E ainda me pega quando estou caindo G E me abraça quando estou chorando Am F E segura as minhas mãos C E me leva pra perto das chamas de amor G Am Que ardem em teu coração e não F Se podem conter C Como uma flecha que estoura em meu peito G E me traz de joelhos enquanto eu Am choro F Tenha o meu coração C Minh'alma soluça quando eu percebo G o contato Am F De seus olhos com os meus [Terceira Parte] C Me leva pra casa G Eu quero voltar Am Pois longe de Ti F Não é o meu lugar C Eu corro depressa G Pra te encontrar Am De braços abertos F Como alguém que esqueceu C Me leva pra casa G Eu quero voltar Am Pois longe de Ti F Não é o meu lugar C Eu corro depressa G Pra te encontrar Am De braços abertos F G Em meu lugar [Final] ( Am G F ) ( Am G F ) ( Am G F ) ( Am G F )
Composição: Israel SubiráColaboração e revisão: Thiago AlmeidaSidnei juniordeivid diasvaldemar marreiroe mais 10

Utilizamos cookies para personalizar sua experiência. Ao acessar o site, você concorda com a nossa Política de Privacidade.