busca

Me Leva Pra Casa

Israel Subirá

Tom: Eb
[Intro] Eb  Bb  Cm  Ab
        Eb  Bb  Cm  Ab
        Eb  Bb  Cm  Ab
        Eb  Bb  Cm  Ab

E|-----------------------------------|
B|8-----15-------15h16p15----13-13---|
G|--8------15----------------------13|
D|-----------------------------------|
A|-----------------------------------|
E|-----------------------------------|

E|-----------------------------------|
B|8-----15-------15h16p15----13-13---|
G|--8------15----------------------13|
D|-----------------------------------|
A|-----------------------------------|
E|-----------------------------------|

E|-----------------------------------|
B|8-----15-------15h16p15----13-13---|
G|--8------15----------------------13|
D|-----------------------------------|
A|-----------------------------------|
E|-----------------------------------|

E|-----------------------------------|
B|8-----15-------15h16p15----13-13---|
G|--8------15----------------------13|
D|-----------------------------------|
A|-----------------------------------|
E|-----------------------------------|

E|-----------------------------------|
B|13-----13------13~-----------------|
G|---13------13----------------------|
D|-----------------------------------|
A|-----------------------------------|
E|-----------------------------------|

[Primeira Parte]

               Eb
Como pode me amar, Deus?
      Bb           Cm
Conhecendo meu pecado
   Ab                      Eb
Sabendo o que eu faço de errado
      Bb              Ab
Como pode me amar assim?

               Eb
Como pode me amar, Deus?
   Bb                Cm
Sabendo que eu sou falho
         Ab                  Eb    Bb
E que o meu coração já não bate mais
           Ab
Como já bateu

               Eb
Como pode me amar Deus?
   Bb                Cm
Sabendo que eu fugiria
   Ab                   Eb
Se a porta estivesse aberta
      Bb               Ab
Como pode em mim confiar?

[Refrão]

            Eb
E ainda me pega quando estou caindo
        Bb
E me abraça quando estou chorando
     Cm             Ab
E segura as minhas mãos
               Eb
E me leva pra perto das chamas de amor
    Bb                       Cm
Que ardem em teu coração e não
             Ab
Se podem conter

           Eb
Como uma flecha que estoura em meu peito
       Bb                           Cm
E me traz de joelhos enquanto eu choro
                 Ab
Tenha o meu coração
             Eb                           Bb
Minh'alma soluça quando eu percebo o contato
        Cm            Ab
De seus olhos com os meus

[Solo] Eb  Bb  Cm  Ab
       Eb  Bb  Cm  Ab

E|-----------------------------------|
B|8-----15-------15h16p15----13-13---|
G|--8------15----------------------13|
D|-----------------------------------|
A|-----------------------------------|
E|-----------------------------------|

E|-----------------------------------|
B|8-----15-------15h16p15----13-13---|
G|--8------15----------------------13|
D|-----------------------------------|
A|-----------------------------------|
E|-----------------------------------|

E|-----------------------------------|
B|13-----13------13~-----------------|
G|---13------13----------------------|
D|-----------------------------------|
A|-----------------------------------|
E|-----------------------------------|

[Segunda Parte]

               Eb
Como pode me amar, Deus?
   Bb                Cm
Sabendo o que eu diria
   Ab                      Eb
Sabendo que eu me frustraria
      Bb              Ab
Como pode me amar assim?

               Eb
Como pode me amar, Deus?
   Bb                    Cm
Sabendo que eu te culparia
       Ab                   Eb
Pelo que não foi como eu queria
      Bb            Ab
Como pode me amar assim?

               Eb
Como pode me amar Deus?
   Bb                  Cm
Sabendo que eu me fecharia
     Ab                   Eb
Quando você quisesse entrar
      Bb             Ab
Como pode em mim confiar?

[Refrão]

            C
E ainda me pega quando estou caindo
        Bb
E me abraça quando estou chorando
     Cm             Ab
E segura as minhas mãos
               Eb
E me leva pra perto das chamas de amor
    Bb                       Cm
Que ardem em teu coração e não
             Ab
Se podem conter

           Eb
Como uma flecha que estoura em meu peito
       Bb                           Cm
E me traz de joelhos enquanto eu choro
                 Ab
Tenha o meu coração
             Eb                           Bb
Minh'alma soluça quando eu percebo o contato
        Cm            Ab
De seus olhos com os meus

[Terceira Parte]

             Eb
Me leva pra casa
             Bb
Eu quero voltar
               Cm
Pois longe de Ti
             Ab
Não é o meu lugar

             Eb
Eu corro depressa
              Bb
Pra te encontrar
            Cm
De braços abertos
                      Ab
Como alguém que esqueceu

             Eb
Me leva pra casa
             Bb
Eu quero voltar
               Cm
Pois longe de Ti
             Ab
Não é o meu lugar

             Eb
Eu corro depressa
              Bb
Pra te encontrar
            Cm
De braços abertos
        Ab     Bb
Em meu lugar

[Final]

( Cm  Bb  Ab )
( Cm  Bb  Ab )
( Cm  Bb  Ab )
( Cm  Bb  Ab )

Clipes