You're Beautiful

James Blunt

Ab
234
431114
Bb
234
X13331
Cm
234
X35543
Eb
234
X65343
Tom: G
[Intro] Eb  Bb  Cm  Ab

[Solo]


E|-------------------------------
B|----4-3-4----4-3-4--6--4-3-4---
G|--0--------0-----------------0-
D|-------------------------------
A|-------------------------------
E|-------------------------------

E|-----------------------------------| 
B|-----------------------------------| 
G|1----------------------------------| 
D|-----------------------------------| 
A|-----------------------------------| 
E|-----------------------------------| 


(Riff)


         Eb              Bb         
E|----------------|---------------
B|----------------|---------------
G|----------------|---------------
D|-5-5-3-5--3-5-0-|-0-------------
A|----------------|---3-5-3-5-----
E|----------------|---------------
          Cm             Ab
E|-|----------------|---------------
B|-|----------------|---------------
G|-|----------------|---------------
D|-|-5-5-3-5--3-5---|-6-6-5-6-------
A|-|----------------|---------------
E|-|----------------|---------------


[Primeira Parte]

My life is brilliant

Eb
  My life is brilliant
Bb
  My love is pure
Cm
  I saw an angel
Ab
  Of that I'm sure

(Riff)

      Eb
She smiled at me on the subway
         Bb
She was with another man
    Cm
But I won't lose no sleep on that
       Ab
'Cause I've got a plan

[Refrão]

Ab              Bb
  You're beautiful
  Eb
You're beautiful
 Ab             Bb       Eb
You're beautiful, it's true
Ab Bb I saw your face Eb Bb Cm In a crowded place Ab Bb Cm And I don't know what to do Ab Bb Eb 'Cause I'll never be with you [Solo] E|-------------------------------- B|----4-3-4-4-3-4-6--4-3-4-------- G|--0---0----0---------1---------- D|-------------------------------- A|-------------------------------- E|-------------------------------- (Riff) Eb Bb E|----------------|--------------- B|----------------|--------------- G|----------------|--------------- D|-5-5-3-5--3-5-0-|-0------------- A|----------------|---3-5-3-5----- E|----------------|--------------- Cm Ab E|-|----------------|--------------- B|-|----------------|--------------- G|-|----------------|--------------- D|-|-5-5-3-5--3-5---|-6-6-5-6------- A|-|----------------|--------------- E|-|----------------|--------------- [Segunda Parte] Eb Yes, she caught my eye Bb As we walked on by Cm She could see from my face that I was Ab flying high Eb And I don't think that Bb I'll see her again Cm But we shared a moment Ab that will last to the end [Refrão Final] Ab Bb You're beautiful Eb You're beautiful Ab Bb Eb You're beautiful, it's true Ab Bb I saw your face Eb Bb Cm In a crowded place Ab Bb Cm And I don't know what to do Ab Bb Eb 'Cause I'll never be with you Ab Cm Ab Cm La la la la, la la la la, la Ab Cm Bb la la la, la Ab Bb You're beautiful Eb You're beautiful Ab Bb Eb You're beautiful, it's true Ab Bb There must be an angel Eb Bb Cm With a smile on her face Ab When she thought up that Bb Eb Bb Cm I should be with you Ab Bb Cm But it's time to face the truth Ab Bb Eb I will never be with you
Composição: Amanda Ghost / James Blunt / Sacha SkarbekColaboração e revisão: Gabriel SilvaSabrina SteffanCaroline JerkeLucas Immiche mais 11