busca

You're Beautiful

James Blunt

Tom: A
[Intro] Eb  Bb  Cm  Ab

[Solo]

E|---------------------------------|
B|----4-3-4----4-3-4--6--4-3-4-----|
G|--0--------0-----------------0-1-|
D|---------------------------------|
A|---------------------------------|
E|---------------------------------|

(Riff)

         Eb              Bb                 Cm             Ab
E|----------------|----------------|----------------|---------------|
B|----------------|----------------|----------------|---------------|
G|----------------|----------------|----------------|---------------|
D|-5-5-3-5--3-5-0-|-0--------------|-5-5-3-5--3-5---|-6-6-5-6-------|
A|----------------|---3-5-3-5------|----------------|---------------|
E|----------------|----------------|----------------|---------------|

My life is brilliant

Eb
 My life is brilliant
Bb
 My love is pure
Cm
 I saw an angel
Ab
 Of that I'm sure

(riff)
    Eb
She smiled at me on the subway
        Bb
She was with another man
    Cm
But I won't lose no sleep on that
       Ab
'Cause I've got a plan
     Eb   Bb   Cm

In a crowded place

[Refrão]

Ab             Bb
 You're beautiful
 Eb
 You're beautiful   
 Ab             Bb         Eb
 You're beautiful, it's true  
  Ab        Bb
I saw your face

      Ab          Bb       Cm
And I don't know what to do
            Ab     Bb       Eb
'Cause I'll never be with you

[Solo]

E|-------------------------|
B|----4-3-4-4-3-4-6--4-3-4-|
G|--0---0----0---------1---|
D|-------------------------|
A|-------------------------|
E|-------------------------|

(riff)

         Eb              Bb                 Cm             Ab
E|----------------|----------------|----------------|---------------|
B|----------------|----------------|----------------|---------------|
G|----------------|----------------|----------------|---------------|
D|-5-5-3-5--3-5-0-|-0--------------|-5-5-3-5--3-5---|-6-6-5-6-------|
A|----------------|---3-5-3-5------|----------------|---------------|
E|----------------|----------------|----------------|---------------|

         Eb
Yes, she caught my eye
      Bb
As we walked on by
          Cm
She could see from my face that I was
Ab
flying high

    Eb                       Bb
And I don't think that I'll see her again
    Cm                           Ab
But we shared a moment that will last to the end

Ab             Bb
 You're beautiful
 Eb
 Ab             Bb         Eb
 You're beautiful, it's true  
  Ab        Bb
I saw your face

     Eb   Bb   Cm
In a crowded place
      Ab          Bb       Cm
And I don't know what to do
            Ab     Bb       Eb
'Cause I'll never be with you

Ab     Cm      Ab     Cm      Ab     Cm      Bb
La la la la, la la la la, la la la la, la

Ab             Bb
 You're beautiful
 Eb
 You're beautiful 
 Ab             Bb         Eb
 You're beautiful, it's true   
      Ab          Bb
There must be an angel

       Eb        Bb   Cm
With a smile on her face
   
         Ab                        Bb             Eb   Bb   Cm
When she thought up that I should be with you
         Ab       Bb        Cm
But it's time to face the truth
        Ab    Bb       Eb
I will never be with you

Clipes

Cifra Club Pro

Aproveite o Cifra Club com benefícios exclusivos e sem anúncios
Cifra Club Pro
Aproveite o Cifra Club com benefícios exclusivos e sem anúncios