Talk Dirty

Jason Derulo

Tom: G
Intro includes:

#1t1##1t2#E|---------------------------------------------------------------------------|
B|---------2/3----3/5--------------------------------------------------------|
G|---------2/4----4/6--------------------------------------------------------|
D|--4--------------------3-4-------------------------------------------------|
A|---------------------------------------------------------------------------|
E|--2--------------------1-2------------------------------------------------|#/1t2##/1t1#

Jason's Voice:

#2t1##2t2#E|-----------------------------------------------------------------------------|
B|-----------------------------------------------------------------------------|
G|-------2-2----------2-2-2-2-2-2----------2--2--4-----------------------------|
D|---4---------4-4-----------------4----------------4--4-----------------------|
A|-----------------------------------------------------------------------------|
E|-----------------------------------------------------------------------------|#/2t2##/2t1#

#3t1##3t2#E|-----------------------------------------------------------------------------|
B|-----------------------------------------------------------------------------|
G|---2--2--2--22--2--------------22--4-----------------------------------------|
D|-------------------4------------------4-4------------------------------------|
A|-----------------------------------------------------------------------------|
E|-----------------------------------------------------------------------------|#/3t2##/3t1#

#4t1##4t2#E|-------2-2-------------------------------------------------------------------|
B|-----------2-2-22--0-3-2---2-0-0-3-2-----------------------------------------|
G|----------------------------------------------2-2-2-22-2-----------4---------|
D|---4-------------------------------------4-4-------------4----4-44---44~~----|
A|-----------------------------------------------------------------------------|
E|-----------------------------------------------------------------------------|#/4t2##/4t1#

~ 00:30 "Been around the world..."


#5t1##5t2#E|------------------------------------------------------------------------------------|
B|-2-2-2-22~--0-0-3-2-----2-2-2-2-22~--0-0-3-2---2-2-2-2- 2-22~--0-0-3-2----2--2------|
G|------------------------------------------------------------------------------------|
D|------------------------------------------------------------------------------------|
A|------------------------------------------------------------------------------------|
E|------------------------------------------------------------------------------------|#/5t2##/5t1#

Talk dirty to me... Sax Hook

#6t1##6t2#E|------------|----6-7--7-7-6-7-9-7-6-------7-6---------------------------------|
B|------------|------------------------8-7-8-----8-7----------------------------|
G|----22------|-----------------------------------------------------------------|
D|-4-----44---|-----------------------------------------3--4--------------------| 3 Times
A|------------|-----------------------------------------------------------------|
E|------------|------------------------------------------1--2-------------------|#/6t2##/6t1#

#7t1##7t2#E|---10-10-10-10--10-9-10-12-10-9---------7-6----------------------------------|
B|-----------------------------------8-7-8-----8-7-----------------------------|
G|-------------------------------------------------------2-2-------------------|
D|---------------------------------------------------4-------4-4---------------|
A|-----------------------------------------------------------------------------|
E|-----------------------------------------------------------------------------|#/7t2##/7t1#

~ 01:00 "You know the words..."

#8t1##8t2#E|-----------------------------------------------------------------------------|
B|-2-----------------------2---------------------------------------------------|
G|----4-2---4-2---------------4-2-4~~2~~---------------------------------------| Repeat
D|---------------4-4-----------------------------------------------------------|
A|-----------------------------------------------------------------------------|
E|-----------------------------------------------------------------------------|#/8t2##/8t1#

#9t1##9t2#E|-2-2--------------------------------------------------------------------------------------|
B|-------2--2--2-2-0-3-2-------2-2-0-3-2----------------------------------------------------|
G|------------------------------------------------2--2--2--22--2-----------------3-3--2--0--|
D|-------------------------------------------4-4------------------4----------4-4------------|
A|---------------------------------------------------------------------4-4-4----------------|
E|------------------------------------------------------------------------------------------|#/9t2##/9t1#

This again

#10t1##10t2#E|------------------------------------------------------------------------------------|
B|-2-2-2-22~--0-0-3-2-----2-2-2-2-22~--0-0-3-2---2-2-2-2- 2-22~--0-0-3-2----2--2------|
G|------------------------------------------------------------------------------------|
D|------------------------------------------------------------------------------------|
A|------------------------------------------------------------------------------------|
E|------------------------------------------------------------------------------------|#/10t2##/10t1#

~ 1:27 (Talk dirty part again)

#11t1##11t2#E|------------|----6-7--7-7-6-7-9-7-6-------7-6---------------------------------|
B|------------|------------------------8-7-8-----8-7----------------------------|
G|----22------|-----------------------------------------------------------------|
D|-4-----44---|-----------------------------------------3--4--------------------| 3 Times
A|------------|-----------------------------------------------------------------|
E|------------|------------------------------------------1--2-------------------|#/11t2##/11t1#

#12t1##12t2#E|---10-10-10-10--10-9-10-12-10-9---------7-6-----------------------------------|
B|-----------------------------------8-7-8-----8-7------------------------------|
G|-------------------------------------------------------2-2--------------------|
D|---------------------------------------------------4-------4-4----------------|
A|------------------------------------------------------------------------------|
E|------------------------------------------------------------------------------|#/12t2##/12t1#

2 Chainz part includes these, figure the pattern out

#13t1##13t2#E|---------------------------------------------------------------------------|
B|---------------------------------------------------------------------------|
G|---------------------------------------------------------------------------|
D|--4--------3-4-------------------------------------------------------------|
A|---------------------------------------------------------------------------|
E|--2--------1-2------------------------------------------------------------|#/13t2##/13t1#

Sax Solo

#14t1##14t2#E|------------------------------------------------------------------------------|
B|---------------------------------------2-0-2-3-2-0----------------------------|
G|-2---------4-2-----2----2-2--2-2---2------------------------------------------|
D|---4--4--------4-4------------------------------------------------------------|
A|------------------------------------------------------------------------------|
E|------------------------------------------------------------------------------|#/14t2##/14t1#

#15t1##15t2#E|--2-2-2-2---2-0-2-5-5-2------2-0-2-5-2-0-------------------------------------|
B|-------------------------------------------2-0-2-0---------------------------|
G|---------------------------------------------------2--2----------------------|
D|-----------------------------------------------------4--4-2-4----------------|
A|-----------------------------------------------------------------------------|
E|-----------------------------------------------------------------------------|#/15t2##/15t1#
Composição: Colaboração e revisão: Iris BM