Am7
12
X02010
C9
34
X35533
D
123
XX0232
Em7
123
022030
G
123
320003
G/B
123
X20033
Tom: G
[Intro] G

#1t1##1t2#E|------------------------------------------------------|
B|------------------------------------------------------|
G|------------------4--x--4-----------------------------|
D|-5-5-5/7--7-7--x-----x--------------------------------|
A|---------------x--2--x--2-----------------------------|
E|-3-3-3/5--5-5--x--------------------------------------|#/1t2##/1t1#

#2t1##2t2#E|------------------------------------------------------|
B|------------------------------------------------------|
G|-7-7-7-4--4-4--x--------------------------------------|
D|---------------x--7-7/9-------------------------------|
A|-5-5-5-2--2-2--x--------------------------------------|
E|------------------5-5/7-------------------------------|#/2t2##/2t1#

[Primeira Parte]

  G
Amiga não tá dando 

Pra esconder 

Eu não tô bem
                                      
Acho que a gente descuidou

E foi além
Em7
    Aquele abraço virou 

Beijo e me cegou
                                       
Não controlei os 

Meus instintos
        C9
E rolou

Amiga não tô dando fora

No seu coração
                                          
Mas nós estamos misturando 
              G
Amizade e paixão

Amizade e paixão

 G
Bem amiga então vamos

Parar por aqui
                                  
Vou te poupar da 
                Em7
Despedida e sair

Vou levantar, fugir 

Tentando não chorar
                                             
Você também engole o choro
                  C9
E tenta disfarçar

Vou convencer meu coração

Que nunca sentiu nada
                                   
Você é a pessoa certa
               D
Mas na hora errada

[Refrão]

           Am7
Não vou negar 
                 
Que vou sentir
         C9
Saudade sua
                                  
Quem sabe um dia 

A gente continua
G
   A gente continua
         Am7
Posso pirar 
                  
Me declarar pelos 
          C9
Bares da rua
              

E esculpir o seu 
            G
Rosto na lua 

O seu rosto na lua
       Am7
Amiga linda 

Quem sabe um dia 
            C9
Vira amada minha
                             
Quem sabe um dia 

Vira amada minha

[Solo]

#3t1##3t2#E|------------------------------------------------------|
B|-1-3-3/5~-1~----3-3h5~--------------------------------|
G|-x--------------x-------------------------------------|
D|-x--------------x-------------------------------------|
A|------------------------------------------------------|
E|------------------------------------------------------|#/3t2##/3t1#

#4t1##4t2#E|------------------------------------------------------|
B|--------3--1/3~----1h3p1--0---------------------------|
G|---4h5--------------------0---------2-0---------------|
D|-0---------------2--------0---3/5-------0-------------|
A|------------------------------------------2-----------|
E|------------------------------------------------------|#/4t2##/4t1#

( Am7  G/B  C9  G )

[Primeira Parte]

 G
Bem amiga então vamos

Parar por aqui
                                  
Vou te poupar da 
                Em7
Despedida e sair

Vou levantar, fugir 

Tentando não chorar
                                             
Você também engole o choro
                  C9
E tenta disfarçar

Vou convencer meu coração

Que nunca sentiu nada
                                   
Você é a pessoa certa
               D
Mas na hora errada

[Refrão]

           Am7
Não vou negar 
                 
Que vou sentir
         C9
Saudade sua
                                  
Quem sabe um dia 

A gente continua
G
   A gente continua
         Am7
Posso pirar 
                  
Me declarar pelos 
          C9
Bares da rua
              

E esculpir o seu 
            G
Rosto na lua 

O seu rosto na lua
       Am7
Amiga linda 

Quem sabe um dia 
            C9
Vira amada minha
                             
Quem sabe um dia 

Vira amada minha
       Am7
Amiga linda

Quem sabe um dia 
            C9
Vira amada minha
                   
Quem sabe um dia 
                 G
Vira amada minha
Composição: Debora Xavier / Euler Coelho / Fred LielColaboração e revisão: Gustavo CunhaGabriel SilvaVitor MarquesLucas Immich
Videoaula Amiga Linda (completa)