busca

Amiga Linda

João Bosco e Vinícius

Tom: Bb (forma dos acordes no tom de G) Capotraste na 3ª casa
Intro: G

E|------------------------------------------------------|
B|------------------------------------------------------|
G|------------------4--x--4-----------------------------|
D|-5-5-5/7--7-7--x-----x--------------------------------|
A|---------------x--2--x--2-----------------------------|
E|-3-3-3/5--5-5--x--------------------------------------|

E|------------------------------------------------------|
B|------------------------------------------------------|
G|-7-7-7-4--4-4--x--------------------------------------|
D|---------------x--7-7/9-------------------------------|
A|-5-5-5-2--2-2--x--------------------------------------|
E|------------------5-5/7-------------------------------|


Primeira Parte:

  G
Amiga não tá dando pra esconder 

Eu não tô bem
                                      
Acho que a gente descuidou e foi além
Em7
    Aquele abraço virou beijo e me cegou
                                       
Não controlei os meus instintos
        C9
E rolou

Amiga não tô dando fora

No seu coração
                                          
Mas nós estamos misturando 
              G
Amizade e paixão

Amizade e paixão

 G
Bem amiga então vamos parar por aqui
                                  Em7
Vou te poupar da despedida e sair

Vou levantar, fugir tentando não chorar
                                             
Você também engole o choro
                  C9
E tenta disfarçar

Vou convencer meu coração

Que nunca sentiu nada
                                   
Você é a pessoa certa
               D
Mas na hora errada


Refrão:

           Am7
Não vou negar 
                         C9
Que vou sentir saudade sua
                                  
Quem sabe um dia a gente continua
G
   A gente continua
         Am7
Posso pirar 
                            C9
Me declarar pelos bares da rua
              
                           G
E esculpir o seu rosto na lua 

O seu rosto na lua
       Am7
Amiga linda, quem sabe um dia 
            C9
Vira amada minha
                             
Quem sabe um dia vira amada minha


Solo:

E|------------------------------------------------------|
B|-1-3-3/5~-1~----3-3h5~--------------------------------|
G|-x--------------x-------------------------------------|
D|-x--------------x-------------------------------------|
A|------------------------------------------------------|
E|------------------------------------------------------|

E|------------------------------------------------------|
B|--------3--1/3~----1h3p1--0---------------------------|
G|---4h5--------------------0---------2-0---------------|
D|-0---------------2--------0---3/5-------0-------------|
A|------------------------------------------2-----------|
E|------------------------------------------------------|

( Am7  G/B  C9  G )


Repete a Primeira Parte:

 G
Bem amiga então vamos parar por aqui
                                  Em7
Vou te poupar da despedida e sair

Vou levantar, fugir tentando não chorar
                                             
Você também engole o choro
                  C9
E tenta disfarçar

Vou convencer meu coração

Que nunca sentiu nada
                                   
Você é a pessoa certa
               D
Mas na hora errada


Repete o Refrão:

           Am7
Não vou negar 
                         C9
Que vou sentir saudade sua
                                  
Quem sabe um dia a gente continua
G
   A gente continua
         Am7
Posso pirar 
                            C9
Me declarar pelos bares da rua
              
                           G
E esculpir o seu rosto na lua 

O seu rosto na lua
       Am7
Amiga linda, quem sabe um dia 
            C9
Vira amada minha
                            G
Quem sabe um dia vira amada minha
       Am7
Amiga linda, quem sabe um dia 
            C9
Vira amada minha
                             G
Quem sabe um dia vira amada minha

Clipes

Cifra Club Pro

Aproveite o Cifra Club com benefícios exclusivos e sem anúncios
Cifra Club Pro
Aproveite o Cifra Club com benefícios exclusivos e sem anúncios